Song name
# A B C D E F G H I J K L M N O P Q R S T U V W X Y Z

Twelve Gates - Unknown Territory tab

e|----------------------------------------------------|
B|----------------------------------------------------|
G|----------------------------------------------------|
D|----------------------------------------------------| Intro
A|-4-x-x-4-x-x-4-x-x--4-5-7--4-x-x-4-x-x-4--4-5-2-----|
E|-2-x-x-2-x-x-2-x-x--2-3-5--2-x-x-2-x-x-2--2-3-0-----|

e|----------------------------------------------------|
B|----------------------------------------------------|
G|----------------------------------------------------|
D|----------------------------------------------------|
A|-------3-2-----------4-2----------3-2----------5----|
E|-2-2-2----5----2-2-2----5---2-2-2-----5--2-2-2-3----|

e|----------------------------------------------------|
B|----------------------------------------------------|
G|----------------------------------------------------|
D|----------------------------------------------------|
A|-------3-2-----------4-2----------3-2----------7----|
E|-2-2-2----5----2-2-2----5---2-2-2-----5--2-2-2-5----|

e|----------------------------------------------------|
B|----------------------------------------------------|
G|----------------------------------------------------|
D|----------------------------------------------------|
A|-------3-2-----------4-2----------3-2----------5----|
E|-2-2-2----5----2-2-2----5---2-2-2-----5--2-2-2-3----|

e|----------------------------------------------------|
B|----------------------------------------------------|
G|----------------------------------------------------|
D|----------------------------5-4---------------------|
A|-------3-2-----------4-2----3-2-5-4-----------------|
E|-2-2-2----5----2-2-2----5-------3-2-----------------|

e|-------------------------------------------------------------|
B|-------------------------------------------------------------|
G|-------------------------------------------------------------|
D|-------------------------------------------------------------| X4
A|-5---------------------------------7-4-----7-----6-----5-4---|
E|-3-3-3-3-3-3-3-3-3-3-3-3-3-3-3-3-3-5-2-2-2-5-5-5-4-4-4-3-2---|

e|---------------------|
B|---------------------|
G|---------------------| X3
D|---------------------|
A|-4-5~--7-4~----------|
E|-2-3~--5-2~----------|

e|---------------------|
B|---------------------|
G|---------------------|
D|---------------------|
A|-4-5~--7-------------|
E|-2-3~--5-------------|

e|------------------------------------------------|
B|------------------------------------------------|
G|------------------------------------------------|
D|--------------2-----4---------------------------|
A|-4---4--4---4-0-0-0-2---3-----------------------|
E|-2-0-2--2-0-2---------0-1-----------------------|

e|------------------------------------------------|
B|------------------------------------------------|
G|------------------------------------------------|
D|--------------5-----4---2-----------------------|
A|-4---4--4---4-3-3-3-2-2-0-----------------------|
E|-2-0-2--2-0-2-----------------------------------|

e|-------------------------------------------------|
B|---------------3-----5---------------------------|
G|---------------2-----4---------------------------|
D|-4---4--4---4--0-0-0-2---3-----------------------|
A|-2-0-2--2-0-2----------0-1-----------------------|
E|-------------------------------------------------|

e|-------------------------------------------------|
B|---------------6-----5---3-----------------------|
G|---------------5-----4---2-----------------------|
D|-4---4--4---4--3-3-3-2-2-0-----------------------|
A|-2-0-2--2-0-2------------------------------------|
E|-------------------------------------------------|

e|---------------------------------------------------|
B|---------------------------------------------------|
G|---------------------------------------------------|
D|--------------5-----4---2--------------------------|
A|-4---4--4---4-3-3-3-2-2-0--4-----------------------|
E|-2-0-2--2-0-2--------------2-----------------------|


e|----------------------|
B|----------------------|
G|----------------------|
D|---------4------------| x3
A|---------4------------|
E|---------2------------|

e|----------------------------------------------------|
B|----------------------------------------------------|
G|----------------------------------------------------|
D|----------------------------------------------------|
A|-4------7-3-4------2----3-4-3-----------------------|
E|-2-2222-5-5-2-2222-0-00-5-2-5-----------------------|

e|----------------------------------------------------|
B|----------------------------------------------------|
G|----------------------------------------------------|
D|----------------------------------------------------|
A|-4-------7-------6-------9-7-6----------------------|
E|-2222222-5555555-4444444-7-5-4----------------------|
Tap to rate this tab
# A B C D E F G H I J K L M N O P Q R S T U V W X Y Z