Song name
# A B C D E F G H I J K L M N O P Q R S T U V W X Y Z

Twelve Gates - Game Of War tab

                          INTRO OF SONG

e|--------------------------------------------------------------------------------|
B|--------------------------------------------------------------------------------|
G|--------------------------------------------------10-9-7----9-7-----------------|
D|-----7---10---9-------5---8---7-------7---10---9---------10-----10-9------------|
A|-0-0---0----0-----0-0---0---0-----0-0---0----0----------------------------------|
E|--------------------------------------------------------------------------------|

e|------------------------------------------------------------------------------------|
B|------------------------------------------------------------------------------------|
G|----------------------------------------------------------------9~------------------|
D|-----7---10---9-------5---8---7-------7---10---9---------7-9-10---------------------|
A|-0-0---0----0-----0-0---0---0-----0-0---0----0----7-9-10----------------------------|
E|------------------------------------------------------------------------------------|

e|------------------------------------------------------------------------|
B|------------------------------------------------------------------------|
G|------------------------------------------------------------------------|
D|------------------------------------------------------------------------|
A|---------7-9-10-----5-7-8-----7-9-10--9-10-12--10-12-14-----------------|
E|-0-0-0-0--------0-0-------0-0-------------------------------------------|

e|------------------------------------------------------------------------|
B|------------------------------------------------------------------------|
G|------------------------------------------------------------------------|
D|--------------------------------------10-9-7----9-7---------------------|
A|---------7-9-10-----5-7-8-----7-9-10---------10-----10-9----------------|
E|-0-0-0-0--------0-0-------0-0-------------------------------------------|

e|------------------------------------------------------------------------------------|
B|------------------------------------------------------------------------------------|
G|----------------------------------------------------------------9~------------------|
D|-----7---10---9-------5---8---7-------7---10---9---------7-9-10---------------------|
A|-0-0---0----0-----0-0---0---0-----0-0---0----0----7-9-10----------------------------|
E|------------------------------------------------------------------------------------|


                       MAIN RIFF OF SONG


e|--------------------------------------------------------------------------|
B|--------------------------------------------------------------------------|
G|--------------------------------------------------------------------------|
D|-10---9----10---9----7-7-----10---9----10----9----12-11-------------------|
A|-8----7----8----7----5-5-----8----7----8-----7----10-9--------------------|
E|---00---00---00---00-----------00---00----00---00-------------------------|

e|--------------------------------------------------------------------------|
B|--------------------------------------------------------------------------|
G|-10---9----10---9----7-7-----10---9----10----9----12-11-------------------|
D|-8----7----8----7----5-5-----8----7----8-----7----10-9--------------------|
A|---00---00---00---00-----------00---00----00---00-------------------------|
E|--------------------------------------------------------------------------|


e|-------------------------------------------------------------------------|
B|-------------------------------------------------------------------------|
G|-------------------------------------------------------------------------|
D|-10---9----10---9----7-7-----10---9----9---------------------------------|
A|-8----7----8----7----5-5-----8----7----7---------------------------------|
E|---00---00---00---00-----------00---00-----------------------------------|


                        CHORUS OF SONG


e|--------------------------------------------------------------------------------|
B|--------------------------------------------------------------------------------|
G|--------------------------------------------------------------------------------|
D|-9----------------9----------------9--------------------------------------------|
A|-7--7-10-7-9-7-7--7--7-10-7-9-7-7--7--7-10-7-9-7-7--10-9------------------------|
E|----------------------------------------------------8--7------------------------|

e|-----------------------------------------------------------------------------------|
B|-----------------------------------------------------------------------------------|
G|-----------------------------------------------------------------------------------|
D|-9----------------9----------------9----------------12-14--------------------------|
A|-7--7-10-7-9-7-7--7--7-10-7-9-7-7--7--7-10-7-9-7-7--10-12--------------------------|
E|-----------------------------------------------------------------------------------|


                           Solo Rhythem at 1:51


e|-------------------------------------------------------|
B|-------------------------------------------------------|
G|-------------------------------------------------------|
D|-10---9----10---9----7-7-----10---9----10----9----12-11|
A|-8----7----8----7----5-5-----8----7----8-----7----10-9-|
E|---00---00---00---00-----------00---00----00---00------|

e|--------------------------------------------|
B|--------------------------------------------|
G|--------------------------------------------|
D|-10---9----10---9----7-7-----10---9----9----|
A|-8----7----8----7----5-5-----8----7----7----|
E|---00---00---00---00-----------00---00------|


                        Breakdown kinda riff thingy idk


e|---------------------------------------------------------------|
B|---------------------------------------------------------------|
G|---------------------------------------------------------------|
D|-7/9---------------------12-11---7/9---------------------12-14-|
A|-5/7-----10-9---12-------10-9----5/7-----10-9---12-------10-12-|
E|-----0-0-8--7-0-10-10-10-------------0-0-8--7-0-10-10-10-------|

e|------------------------------------------------------------------|
B|------------------------------------------------------------------|
G|------------------------------------------------------------------|
D|-9~-------9~-------12-11-7-9~-------9~-------12-14----------------|
A|-7~-------7~-------10-9--5-7~-------7~-------10-12----------------|
E|------------------------------------------------------------------|


                    Your Guitar Solo at 3:24


e|--------------------------------------------------------------|
B|--------------------------------------------------------------|
G|----------Your Guitar Solo------------------------------------|
D|--------------------------------------------------------------|
A|--------------------------------------------------------------|
E|--------------------------------------------------------------|


            Your Rythem for my guitar solo 3:33


e|--------------------------------------------------------------------|
B|--------------------------------------------------------------------|
G|-10/9----7/9----10/9---12-11-----10/9----7/9----10/9----------------|
D|-8-/7----5/7----8-/7---10-9------8-/7----5/7----8-/7---10-9---------|
A|------00-----00------0--------00------00-----00------0-8--7---------|
E|--------------------------------------------------------------------|


                  Your Guitar solo 3:42


e|--------------------------------------------------------------|
B|--------------------------------------------------------------|
G|--------------------------------------------------------------|
D|---------------Your Guitar solo-------------------------------|
A|--------------------------------------------------------------|
E|--------------------------------------------------------------|


     Your rhythem for my guitar solo 3:50-4:26


e|--------------------------------------------------------------------------------------------------|
B|--------------------------------------------------------------------------------------------------|
G|--------------------------------------------------------------------------------------------------|
D|-9----9----9----9----5----5----5----5----12-------12-------12-------12-------7----7----7----7-----|
A|-7-77-7-77-7-77-7-77-3-33-3-33-3-33-3-33-10-10-10-10-10-10-10-10-10-10-10-10-5-55-5-55-5-55-5-55--|
E|--------------------------------------------------------------------------------------------------|


               Your Guitar Solo 4:26


e|--------------------------------------------------------------|
B|--------------------------------------------------------------|
G|--------------------------------------------------------------|
D|-------Your Guitar Solo---------------------------------------|
A|--------------------------------------------------------------|
E|--------------------------------------------------------------|


                     Another riff change 4:47


e|--------------------------------------------------------------|
B|--------------------------------------------------------------|
G|--------------------------------------------------------------|
D|-9-----11-----12-----14-----9-----11-----12-----14--14-14-----|
A|-7-----9------10-----12-----7-----9------10-----12--12-12-----|
E|---0-0----0-0----0-0----0-0---0-0----0-0----0-0---------------|
Tap to rate this tab
# A B C D E F G H I J K L M N O P Q R S T U V W X Y Z