Song name
# A B C D E F G H I J K L M N O P Q R S T U V W X Y Z

Twelve Gates - You Dont Understand tab

e|-----------------------------------------------------------------------|
B|-----------------------------------------------------------------------|
G|------------------------------------------7*---------------------------|
D|------------------------------------------7*----------9-7--------------|
A|-9---------------5--------------7------------9-----------9-8-7---------|
E|-777777777777777-33333333333333-5555555555---77777777---------10-9-7---|

e|----------------------------------------------------|
B|----------------------------------------------------|
G|----------------------------------------------------|
D|-9-------7-------4-----7-----4----------------------|
A|-7777777-5555555-2-2-2-5-5-5-2222222----------------|
E|----------------------------------------------------|

e|----------------------------------------------------|
B|----------------------------------------------------|
G|----------------------------------------------------|
D|-9-------7------------------------------------------|
A|-7777777-5555555-7~---------------------------------|
E|-----------------5~---------------------------------|

e|------------------------------------------------------------------|
B|------------------------------------------------------------------|
G|------------------------------------------------------------------|
D|------------------------------------------------------------------|
A|-----9---10---9--------7----9----7------7---9---7------4---7---4--|
E|-7-7---7----7----10-10---10---10----9-9---9---9----5-5---5---5----|


e|--------------------------------------------------------|
B|--------------------------------------------------------|
G|--------------------------------------------------------|
D|--------------------------------------------------------|
A|---9-7-5--4-5-4------9-7-5--4-5-4-----9-7-5--4-5-4------|
E|-7--------------5-3~--------------5-0--------------5----|

e|----------------------------------------------------|
B|----------------------------------------------------|
G|----------------------------------------------------|
D|----------------------------------------------------|
A|-4----5---7-----------------------------------------|
E|-2222-333-5555--------------------------------------|

e|----------------------------------------------------|
B|----------------------------------------------------|
G|----------------------------------------------------|
D|----------------------------------------------------|
A|-9-9-7-9-7-9--9-9-7-9-7-5~-5-7----------------------|
E|-7-7-5-7-5-7--7-7-5-7-5-3~-3-5----------------------|

e|---------------------------------------------------------------------|
B|---------------------------------------------------------------------|
G|---------------------------------------------------------------------|
D|---------------------------------------------------------------------|
A|-9---------------5--------------7-----------9---------9--7-9-7-9-7---|
E|-777777777777777-33333333333333-5555555555--77777777--7--5-7-5-7-5---|
Tap to rate this tab
# A B C D E F G H I J K L M N O P Q R S T U V W X Y Z