Song name
# A B C D E F G H I J K L M N O P Q R S T U V W X Y Z

Twelve Gauge Valentine - Casket Junkie tab

-------------------------------------------------------------------------------
		      CASKET JUNKIE - Twelve Gauge Valentine
-------------------------------------------------------------------------------
Tabbed by: Connor Louiselle
Email: conz51@hotmail.com

Tuning:C# G# C# F# A# D#

   [            x4]                  [
D#|----------------|----------------|----------------|----------------|
A#|----------------|----------------|----------------|----------------|
F#|----------------|----------------|----------------|----------------|
C#|----------------|----------------|----------------|----------------|
G#|--------3-------|--------5-------|--53-------3----|--53------------|
C#|5050506---53530-|03030-3---530350|0---5356530-530-|0---535650607090|
                                 x2] [
D#|----------------|----------------|----------------|----------------|
A#|----------------|----------------|----------------|----------------|
F#|----------------|----------------|----------------|----------------|
C#|----------------|0-03-5-003-6-53-|----------------|----------------|
G#|--53-------3----|0-03-5-003-6-53-|-------------3--|---------3------|
C#|0---5356530-530-|0-03-5-003-6-53-|0-03030303030-53|0-0303030-53035-|
                x3] [               /1st ending   x5] (6th time only)
D#|----------------|----------------|----------------|----------------|
A#|----------------|----------------|----------------|----------------|
F#|----------------|-------------5--|----------------|----------------|
C#|----------------|---30650---30-65|---30650---30506|---306500---12--|
G#|6-66666665------|----------------|----------------|--------0---12--|
C#|6-6666666-650530|0-0-----0-0-----|0-0-----0-0-----|0-0-----0---12--|
   [                                                               x2]
D#|----------------|----------------|----------------|----------------|
A#|----------------|----------------|----------------|----------------|
F#|----------------|----------------|----------------|----------------|
C#|----------------|----------------|----------------|----------30-03-|
G#|-------------3--|----------------|-------------3--|----------30-03-|
C#|0-0306530-030-53|0-0306530-030506|0-0306530-030-53|0-0306530-30-03-|
   [            x3] 
D#|----------------|----------------|----------------|----------------|
A#|----------------|----------------|----------------|----------------|
F#|----------------|----------------|----------------|----------------|
C#|----------------|----------------|----------------|----------------|
G#|--------3-------|--------3-------|----------------|-------------3--|
C#|5050506---53530-|5050506---535300|0-03000300030003|0-03000300030-53|
                                                      [
D#|----------------|----------------|----------------|----------------|
A#|----------------|----------------|----------------|----------------|
F#|----------------|----------------|----------------|----------------|
C#|----------------|----------------|----------------|----------------|
G#|----------------|---------3------|6-66666665------|6-3-5306--3-5306|
C#|0-03000300030003|0-0300030-53035-|6-6666666-650530|6-3-5306--3-5306|
                                                  x2]
D#|----------------|----------------|----------------|----------------|
A#|----------------|----------------|----------------|----------------|
F#|----------------|----------------|----------------|----------------|
C#|----------------|----------------|----------------|----------------|
G#|6-3-530-353----5|5-3-5305--3-5305|5-3-530-353----6|5-55555555553-6-|
C#|6-3-530----653-5|5-3-5305--3-5305|5-3-530----653-6|5-55555555553-6-|
   [                             x6]                  [            x2]
D#|----------------|----------------|----------------|----------------|
A#|----------------|----------------|----------------|----------------|
F#|----------------|----------------|----------------|----------------|
C#|----------------|3---------------|----------------|----------------|
G#|---530-------035|--530----33--33-|6-666666665-----|----------------|
C#|0-3---6530356---|-----653033--33-|6-66666666-63530|0-00-00-0-0-03-6|

D#|----------------|----------------|----------------|----------------|
A#|----------------|----------------|----------------|----------------|
F#|----------------|----------------|----------------|----------------|
C#|----------------|----------------|----------------|----------------|
G#|-------------3--|----------------|---------353----|5-55555555553-6-|
C#|0-00-00-0-0-0-53|0-00-00-0-0-03-6|0-00-00-0---6530|5-55555555553-6-|

D#|----------------|----------------|----------------|----------------|
A#|----------------|----------------|----------------|----------------|
F#|----------------|----------------|----------------|----------------|
C#|----------------|----------------|----------------|----------------|
G#|-------------3--|----------------|-------------3--|---------353----|
C#|0-00-00-0-0-0-53|0-00-00-0-0-03-6|0-00-00-0-0-0-53|0-00-00-0---6530|

D#|----------------|----------------|----------------||
A#|----------------|----------------|----------------||
F#|----------------|----------------|----------------||
C#|----------------|----------------|----------------||
G#|5-55555555555555|6-666666653-----|0---------------||
C#|5-55555555555555|6-6666666--53530|0---------------||

| /  slide up
| \  slide down
| h  hammer-on
| p  pull-off
| ~  vibrato
| +  harmonic
| x  Mute note
===============================================================================
That's it:) Repeat Errors (hopefully) fixed. Should be all cleaned up now:) hope you enjoy, more on the way!
Tap to rate this tab
# A B C D E F G H I J K L M N O P Q R S T U V W X Y Z