Guitaretab - guitar tabs
Song name
# A B C D E F G H I J K L M N O P Q R S T U V W X Y Z

Twelve Gauge Valentine - Danger Lurking tab

-------------------------------------------------------------------------------
	            Danger Lurking - Twelve Gauge Valentine
-------------------------------------------------------------------------------
Tabbed by: Connor Louiselle
Email: conz51@hotmail.com

Tuning: C# G# C# F# A# D#

D#|------------|---{----------------|--------------x2}----------------|
A#|----------pi|---{----------------|----------------}----------------|
F#|5---------ck|---|----------------|----------------|----------------|
C#|0---hold---s|5-5|5--------------5|5-------555555-5|5--------------5|
G#|3---------li|3-3|3---3---5---3--3|3---3---333333-3|3-50-----------3|
C#|----------de|---|-035--53--35-5--|-035--53--------|-0--6-5-3-5-30--|

D#|----------------|----------------|----------------|----------------|
A#|----------------|----------------|----------------|----------------|
F#|----------------|----------------|----------------|----------------|
C#|5--------------5|5---------------|----------------|---------------5|
G#|3-50--------3--3|3-50-----------6|-66666665555---0|0-50-----------3|
C#|-0--6-5-0-5--0--|-0--6-5-3-5-30-6|-6666666555563-0|00--6-5-3-5-30--|

D#|----------------|----------------|----------------{----------------|
A#|----------------|----------------|----------------{----------------|
F#|----------------|----------------|----------------|----------------|
C#|5-----------5+~5|5---------------|----------------|-------55------5|
G#|3-50-----------3|3-50-----------6|-66666665555---0|0-3-5--33-3-5--3|
C#|-0--6-5-0-3-----|-0--6-5-3-5-30-6|-6666666555563-0|0-3-5-----3-5---|

D#|--------------x4}----------------|----------------|----------------|
A#|----------------}----------------|----------------|----------------|
F#|----------------|----------------|----------------|----------------|
C#|5---------------|---------------5|5---------------|---------------5|
G#|3-3-5-xx66xx88-0|0--------------3|3--------------0|0--------------3|
C#|--3-5-xx66xx88-0|0---------------|---------------0|0---------------|

D#|----------------{----------------|--------------x2}
A#|----------------{----------------|----------------}
F#|----------------|----------------|----------------|
C#|5-hold--slide---|5--------------5|5-------555555--|
G#|3---------------|3---3---5---3--3|3---3---333333--|
C#|----------------|-035--53--35-5--|-035--53-------0|

D#{----------------|----------------|----------------|--------------x2}
A#{----------------|----------------|----------------|----------------}
F#|----------------|----------------|----------------|----------------|
C#|----------------|------------30--|----------------|----------------|
G#|--5-----3-------|--5-----3530----|--5-----3------0|-05-0-3-0-5-03-0|
C#|-0--3-0---5-35-0|00--3-0--------0|00--3-0---5-35-0|-05-0-3-0-5-03-0|
[ Tab from: http://www.guitaretab.com/t/twelve-gauge-valentine/85365.html ]
D#|----------------|----------------|----------------|
A#|----------------|----------------|----------------|
F#|----------------|----------------|----------------|
C#|----------------|----------------|----------------|
G#|-05-0-3-0-5-03-0|-05-0-3-0-5-03--|---------------0|
C#|-05-0-3-0-5-03-0|-05-0-3-0-5-03-0|-05-0-3-0-5-03-0|

D#{----------------|----------------|----------------|--------------x2}
A#{----------------|----------------|----------------|----------------}
F#|----------------|----------------|----------------|----------------|
C#|----------------|----------------|----------------|-------3--------|
G#|-05-0-3-0-5-03-0|-05-0-3-0-5-03--|-05-0-3-0-5-03-0|--3530---53035-0|
C#|-05-0-3-0-5-03-0|-05-0-3-0-5-03-0|-05-0-3-0-5-03-0|-0-------------0|

D#|---------{----------------|-------------x2}{--------------x3}
A#|---------{----------------|---------------}{----------------}
F#|---------|----------------|----------------|----------------|
C#|3--------|----------------|----------------|----------------|
G#|--530---0|0-----------00-0|0--------------0|0-----------00-0|
C#|-----35-0|0-----------00-0|0--------------0|0-----------00-0|

D#|----------------{----------------|----------------|----------------|
A#|----------------{----------------|----------------|----------------|
F#|----------------|----------------|----------------|----------------|
C#|----------------|----------------|----------3-----|----------------|
G#|---------------0|0-50-----------0|0-50-----------0|0-50-----------0|
C#|03505303653530-0|00--6-503-5-00-0|00--6-503---00-0|00--6-503-5-00-0|

D#|--------------x2}----------------|----------------|----------------|
A#|----------------}----------------|----------------|----------------|
F#|----------------|----------------|----------------|----------------|
C#|----------------|----------------|----------------|----------------|
G#|---------------0|-00000000000-0-0|-00000003------0|-00000000000-0-0|
C#|03505303653530-0|-00000000000-0-0|-0000000-53035-0|-00000000000-0-0|

D#|----------------|----------------|----------------|----------------|
A#|----------------|----------------|----------------|----------------|
F#|----------------|----------------|----------------|----------------|
C#|----------------|----------------|----------------|----------------|
G#|-00000003------0|-00000000000-0-0|-0000000--------|-00000000000-0-0|
C#|-0000000-53035-0|-00000000000-0-0|-000000035303600|-00000000000-0-0|
...We gotta get aaaaway!!!

D#|----------------|-------|---------||
A#|----------------|-------|---------||
F#|----------------|-------|---------||
C#|----------------|-------|0--------||
G#|-0000000-------3|-------|0--------||
C#|-0000000353036--|-53035-|0--------||


| /  slide up
| \  slide down
| h  hammer-on
| p  pull-off
| ~  vibrato
| +  harmonic
| x  Mute note
===============================================================================
New and improved repeat system! hope it works better for you! 
Next song will either be BALL AND CHAIN or BONE CRUSHER!
Contact me to vote on which one!
WOOT 12GA.V!!!!!! 
Related for Danger Lurking tab
Advertisement will be closed in 10 seconds