Song name
# A B C D E F G H I J K L M N O P Q R S T U V W X Y Z

Twelve Tribes - Venus Complex tab

Twelve Tribes - Venus Complex

Well, I know that this is not 100% correct, but you can record a good cover of the song with 

this.

Tuning: Drop C

I really don't know what he plays in the intro... so, let's go to the verse, the intro is 

like, 2 seconds long anyway. xD

I'll not write the strum pattern... it's really unnecessary, you can figure it out by 

yourself

Verse                             Pre-Chorus         Chorus
D|---------------|---------------|------------------|-------------|
A|---------------|---------------|------------------|-------------|
F|-----0---------|---------------|---------------10-|-8-----------|
C|-6-5-0-(Repeat)|-1-0-5s0-1-0-5-|-6-5-(x2)-then-10-|-8-8-10-5-10-|
G|-6-5-----------|-1-0-5s0-1-0-5-|-6-5-----------8--|-6-8-10-5-10-|
C|-6-5-----------|-1-0-5s0-1-0-5-|-6-5--------------|---8-10-5-10-|

Outro                                  Guitar 2
D|------------------------------------|----------11----------13---------------13-------|
A|------------------------------------|-11h13p11----11-13-11----11-13-11-(x2)----13-11-|
F|-8-10----------------------8-10-----|------------------------------------------------|
C|-8-10-6-5-(repeat 2x)-then-8-10-5-8-|------------------------------------------------|
G|-6-8--6-5------------------6-8--5-8-|------------------------------------------------|
C|------6-5-----------------------5-8-|------------------------------------------------|

The song is pretty much this, hope you like it. If you find any mistakes, feel free to 

contact me.
Tap to rate this tab
# A B C D E F G H I J K L M N O P Q R S T U V W X Y Z