Song name
# A B C D E F G H I J K L M N O P Q R S T U V W X Y Z

Twelve Tribes - As Ghosts Are Given To Me tab

TWELVE TRIBES  AS GHOSTS ARE GIVEN TO ME

    d|-----------------------------------------------------|
    A|---------4-------------4-------------4---------4-5-4-|
GTR F|---------7-------------7-------------7---------7-8-4-|
1+2 C|-----------------------------------------------------|
    G|-000-000---000-000-000---000-000-000---000-000-------|
    C|-000-000---000-000-000---000-000-000---000-000-------|

    d|-----------------------------------------------|
    A|---------4---4---------4----------4---4---4--4-|
GTR F|---------7---7---------7----------7---7---7--4-|
1+2 C|-----------------------------------------------|
    G|-0-0-0-0---0---0-0-0-0----0-0-0-0---0---0------|
    C|-0-0-0-0---0---0-0-0-0----0-0-0-0---0---0------|

Play above x2

    d|---------------------------------|
    A|---------------------------------|
GTR F|-7---10--9---5---7---6---9-------|
1+2 C|-5---7---10--5---5---4---7---0---| x3
    G|-6---8---10--3---6---5---8---0---|
    C|-5---7---8---3---5---4---7---0---|

    d|---------------------------------|
    A|---------------------------------|
GTR F|-7---10--9---5---7---6---9-------|
1+2 C|-5---7---10--5---5---4---7---0---|
    G|-6---8---10--3---6---5---8---0---|
    C|-5---7---8---3---5---4---7---0---|
                                  PM

    d|-------------------------------|
    A|-5-----------------------------|
GTR F|-5-----------------------------|
 1  C|-7-----------------------------|
    G|-6-----------------------------|
    C|-7-----------------------------|

    d|-------------------------------|
    A|-------------------------------|
GTR F|-------------------------------|
 2  C|-----------------------7h8p7---|
    G|-------7-8-5---5-----5-------8-|
    C|-----7-------7---0-7-----------|

    d|---------------------------------|
    A|---------------------------------|
GTR F|---------------------------------|
 1  C|---------------------------------|
    G|---------------------------------|
    C|---------------------------------|

    d|---------------------------------|
    A|---------------------------------|
GTR F|---------------------------------|
 2  C|-------------------------8p7---7-|
    G|-8-7-5---7-8-5---5-----5-----8---|
    C|-------7-------7---0-7-----------|

-----------------------------------------------------

    d|---------------------------------|
    A|---------------------------------|
GTR F|---------------------------------|
 1  C|---------------------------------|
    G|---------------------------------|
    C|---------------------------------|

    d|---------------------------------|
    A|---------------------------------|
GTR F|---------------------------------|
 2  C|-------------------------7h8p7---|
    G|-8-7-5---7-8-5---5-----5-------8-|
    C|-------7-------7---0-7-----------|

    d|---------------------------------|
    A|---------------------------------|
GTR F|---------------------------------|
 1  C|---------------------------------|
    G|---------------------------------|
    C|---------------------------------|

    d|---------------------------------|
    A|---------------------------------|
GTR F|---------------------------------|
 2  C|-------------------------8p7---7-|
    G|-8-7-5---7-8-5---5-----5-----8---|
    C|-------7-------7---0-7-----------|

play x2
------------------------------------------------------

    d|---------------------------------|
    A|---------------------------------|
GTR F|---------------------------------|
1+2 C|-3p0---2p0---5p0---------3p0-----| x3
    G|-------------------6p0-------6p0-|
    C|-----0-----0-----0-----0---------|
          PM    PM    PM    PM

    d|-------------------------|
    A|-------------------------|
GTR F|-------5-------5---------|
1+2 C|-3p0---4-3p0---4---------|
    G|-----------------0-0-1-1-|
    C|-----0-------0---0-0-1-1-|
          PM      PM   P M P M

    d|---------------------------------|
    A|---------------------------------|
GTR F|---------------------------------|
1+2 C|-3p0---2p0---5p0---------3p0-----| x3
    G|-------------------6p0-------6p0-|
    C|-----0-----0-----0-----0---------|
          PM    PM    PM    PM

    d|-------------------------|
    A|-----------------0-------|
GTR F|-------5-------5---------|
1+2 C|-3p0---4-3p0---4-9-------|
    G|-------------------------|
    C|-----0-------0---9-------|
          PM      PM   

    d|-----------------------|
    A|-----------------------|
GTR F|-5---------------------|
1+2 C|-4---------------------| x3
    G|---0-0---------222-111-|
    C|---0-0-333-222---------|
         P M P M P M P M P M

    d|-------------------------------------------------|
    A|-------------------------------------------------|
GTR F|-----------------5-----5/6\5---------------------|
1+2 C|-----------------4-----4/5\4---------------------|
    G|---------222-111---0-0-------0-0---------222-111-|
    C|-333-222-----------0-0-------0-0-333-222---------|
       P M P M P M P M   P M       P M P M P M P M P M

    d|-----------------------|
    A|-----------------------|
GTR F|-5---------------------|
1+2 C|-4---------------------| x2
    G|---0-0---------222-111-|
    C|---0-0-333-222---------|
         P M P M P M P M P M

    d|-------------------------------------------------|
    A|-------------------------------------------------|
GTR F|-----------------5-----5/6\5---------------------|
1+2 C|-----------------4-----4/5\4---------------------|
    G|---------222-111---0-0-------0-0---------222-111-|
    C|-333-222-----------0-0-------0-0-333-222---------|
       P M P M P M P M   P M       P M P M P M P M P M

    d|-----------------------|
    A|-----------------------|
GTR F|-5---------------------|
1+2 C|-4---------------------| x2
    G|---0-0---------222-111-|
    C|---0-0-333-222---------|
         P M P M P M P M P M

    d|-----------------------------|
    A|-----------------------------|
GTR F|-----------------5-----5/6\5-|
1+2 C|-----------------4-----4/5\4-|
    G|---------222-111---0-0-------|
    C|-333-222-----------0-0-------|
       P M P M P M P M   P M    

    d|-------- x3 -----------|-------|
    A|-----------------------|-------|
GTR F|-----------------------|-------|
 1  C|-----5-----5-----5/6\5-|-----5-|
    G|-0-0-3-0-0-3-0-0-4/5\4-|-0-0-3-|
    C|-0-0---0-0---0-0-------|-0-0---|
       P M   P M   P M         P M

    d|-------------------------------|
    A|-------------------------------|
GTR F|-------------------------------|
 2  C|-------- noise ----------------|
    G|-------------------------------|
    C|-------------------------------|  

    d|-------------------------------|
    A|---1-------1-------1-----------|
GTR F|-4-----0-4-----0-4-----0-4h5---|
 1  C|-----3-------3-------3-------3-| x6
    G|-------------------------------|
    C|-------------------------------|

    d|-------------------------------|
    A|-------------------------------|
GTR F|-5-----------------------------|
 2  C|-3-------7-------8-------3-----| x6
    G|-1-------5-------7-------0-----|
    C|---------5-------7-------0-----|

    d|-------------------------------|
    A|-------------------------------|
GTR F|-------------------------------|
1+2 C|-----1---1p0-----3---1/4---6/8-| x4
    G|-0-3---0-----0-3---0-----0-4/6-|
    C|-0-3---0-----0-3---0-----0-----|

    d|-------------------------------|
    A|-------------------------------|
GTR F|-------------------------------|
 1  C|-----1---1p0-----3---1/4---6/8-| x4
    G|-0-3---0-----0-3---0-----0-4/6-|
    C|-0-3---0-----0-3---0-----0-----|

    d|----------------------------------------|
    A|----------------------------------------|
GTR F|-6-6-6-8-8-8-7-7-7-10-10-10-10-10-10-10-|
 2  C|----------------------------------------| x4
    G|-4-4-4-6-6-6-5-5-5-8--8--8--8--8--8--8--|
    C|----------------------------------------|

    d|----------------------|
    A|----------------------|
GTR F|-10----9----5----9----|
1+2 C|-12----7----5----7----| repeat til fade
    G|-8-----7----3----7----|
    C|-8-----7----3----7----|

END
Tap to rate this tab
# A B C D E F G H I J K L M N O P Q R S T U V W X Y Z