Song name
# A B C D E F G H I J K L M N O P Q R S T U V W X Y Z

Twelve Tribes - Muzzle Order tab

Twelve Tribes - Muzzle Order
Album: Midwest Pandemic
http://www.twelvetribesonline.com/

Amazing song, amazing album, amazing band. I couldn't find a single 12T tab online so I 
I'd give it a try. I'm not gonna vouch for how accurate this is... I think I got most 
sounding OK... but hell, any proper guitarists out there, improve this so it's good!

Drop C Tuning

(a)                 (repeat |oo| 4 times)
--------|------------------------------------|
--------|o----------------------------------o|
------7-|-------7------7------7----------7---|
------x-|-------x------x------x----------x---|
------5-|o------5------5------5----------5--o|
-00000--|--00000--00000--00000--000000000----|
                                     ^ skip from here on last repeat

(b) (repeat 4 times)
-------------------------------------|
-------------------------------------|
---10-10-10-10-9-9-9-9-7-7-7-7-7-----|
-------------------------------------|
-0-----------------------------------|
-0-(let ring)------------------------|


(c)  (repeat 2 times)
---------------------------------------|
---1111111111----1111---111111111---15-|
---x-x-x-x-x-----x-x----x-x-x-x-x---x--|
---8-8-8-8-8-----8-8----8-8-8-8-8---12-|
---------------------------------------|
-00-----------00------00----------00---|


(d)  (repeat |oo| 4 times)
|---------------------------------------|-----|
|o-------------------------------------o|---8-|
|---------------------------------------|---x-|
|----5h7h8p7p5h7h8p7p5---5h7h8p7p5h7h8--|---5-|
|o-------------------------------------o|-----|
|--00------------------00---------------|-00--|
                       ^ skip from here on last repeat
(not sure about this bit at all)


(e)
-------------------------------------|
-----(other guitar plays part (b))---|
-------------------------------------|
-8-------5-------8-------5-----------|
-8-------5-------8-------5-----------|
-8-------5-------8-------5-----------|
(listen for rhythm)


(f) (repeat two times)

  (repeat |oo| two times)
|-----------------------------|-----------|
|o--111111111313131315151515-o|-----------|
|---x-x-x-x-x-x-x-x-x-x-x-x---|-14--------|
|---8-8-8-8-1010101012121212--|-x---------|
|o-0-------------------------o|-12---5p0--|
|--0--------------------------|------5p0--|
(listen for rhythm)


(g) (repeat four times)
-------------------------------------|
--11-11-108--------------------------|
--x--x--x-x--------------------------|
--8--8--7-5--------------------------|
-0-----------------------------------|
-0--0--0-----------------------------|


(h)
   (repeat |oo| two times)
|------------------------|-----------|
|o--1111-11---1111-1111-o|-11--------|
|---x-x--x----x-x--x-x---|-x---------|
|---8-8--8----8-8--8-8---|-8---------|
|o-0----0----0----0-----o|-----------|
|--0----0----0----0------|-----------|


(i)              (repeat |oo| two times)
-------|-------------------------------------------------------|
-------|o-----------------------------------------------------o|
-------|-------------------------------------------------------|
-------|-------------------------------------------------------|
-----0-|o-----0-----0-----0-----0-----0-----0-----0---------0-o|
-00000-|--00000-00000-00000-00000-00000-00000-00000-000000000--|
                                                            ^ replace with 5x7 as in (a) 
last repeat

Song Structure
(a), (b), (a), (c), (d), (e), (f), (g), (h), (interlude with wah pedal), (g), (g) again, 
few muted open power chords, (e), (f), (a), (i)

Hope this helps, take it easy everyone!
Tap to rate this tab
# A B C D E F G H I J K L M N O P Q R S T U V W X Y Z