Song name
# A B C D E F G H I J K L M N O P Q R S T U V W X Y Z

Twenty Inch Burial - Letters Of Discontempt tab

Twenty Inch Burial - Letters of Discontempt

Tabs by Punkwolf

Intro
e|---------------------------|  |---------------------------|
B|---------------------------|  |---------------------------|
G|--5-5-5-5-5-5--------------|  |--5-5-5-5-5-5--------------|
D|--2-2-2-2-2-2-5-5-5-7-3-3--|  |--2-2-2-2-2-2-5-5-5-7-3-3--|
A|--------------5-5-5-7-3-3--|  |--------------5-5-5-7-3-3--|
D|--------------5-5-5-7-3-3--|  |--------------5-5-5-7-3-3--|

Verse
e|----------------------------------------------------|
B|----------------------------------------------------|
G|--5-5-5-5-5-5--------------5-5-5-5-5-5--------------|
D|--2-2-2-2-2-2-5-5-5-7-3-3--2-2-2-2-2-2-5-5-5-7-3-3--|
A|--------------5-5-5-7-3-3--------------5-5-5-7-3-3--|
D|--------------5-5-5-7-3-3--------------5-5-5-7-3-3--|

e|----------------------------------------------------------|
B|----------------------------------------------------------|
G|-----5----5----5-----------------5----5----5--------------|
D|-----2----2----2-5-5-5-7-3-3-----2----2----2-5-5-5-7-3-3--|
A|--..---..---..---5-5-5-7-3-3--..---..---..---5-5-5-7-3-3--|
D|--00---00---00---5-5-5-7-3-3--00---00---00---5-5-5-7-3-3--|
. - Palm mute

Chorus 1
e|----------------------------------------------------------------------|
B|----------------------------------------------------------------------|
G|---------------------------------10-9-7-----------10-9-7--------------|
D|--2-2-3-3~---2-2-3-3~---2-2-3-3----------2-2-3-3---------5-5-5-7-3-3--|
A|--2-2-3-3~---2-2-3-3~---2-2-3-3---8-7-5--2-2-3-3---8-7-5-5-5-5-7-3-3--|
D|--2-2-3-3~---2-2-3-3~---2-2-3-3----------2-2-3-3---------5-5-5-7-3-3--|

Chorus 2
e|----------------------------------------------------------------|
B|----------------------------------------------------------------|
G|---------------------------------10-9-7-----------12-10-9-10-9--|
D|--2-2-3-3~---2-2-3-3~---2-2-3-3----------2-2-3-3----------------|
A|--2-2-3-3~---2-2-3-3~---2-2-3-3---8-7-5--2-2-3-3--10--8-7--8-7--|
D|--2-2-3-3~---2-2-3-3~---2-2-3-3----------2-2-3-3----------------|

Bridge
e|----------------------------------------------------|
B|----------------------------------------------------|
G|----------------------------------------------------|
D|--3-3---------3-3---------5-5---------5-5-----------|
A|--3-3-333-7-3-3-3-333-7-3-5-5-333-7-3-5-5--333-7-8--|
D|--3-3---------3-3---------5-5---------5-5-----------|

e|----------------------------------------------------|
B|----------------------------------------------------|
G|----------------------------------------------------|
D|--3-3---------3-3---------5-5---------5-5-----------|
A|--3-3-333-7-3-3-3-333-7-3-5-5-333-7-3-5-5--333-7-8--|
D|--3-3---------3-3---------5-5---------5-5-----------|

e|----------------------------------------------------|
B|----------------------------------------------------|
G|------555-9-5-----555-9-5-----555-9-5-----555-9-10--|
D|--3-3---------3-3---------5-5---------5-5-----------|
A|--3-3-333-7-3-3-3-333-7-3-5-5-333-7-3-5-5-333-7--8--|
D|--3-3---------3-3---------5-5---------5-5-----------|

e|----------------------------------------------------|
B|----------------------------------------------------|
G|------555-9-5-----555-9-5-----555-9-5-----555-9-10--|
D|--3-3---------3-3---------5-5---------5-5-----------|
A|--3-3-333-7-3-3-3-333-7-3-5-5-333-7-3-5-5-333-7--8--|
D|--3-3---------3-3---------5-5---------5-5-----------|

e|-------------------------------------------------------------------------|
B|-------------------------------------------------------------------------|
G|-------------------------------------------------------------------------|
D|--..-----.-----.----..-----.-----.----..-----.-----.----..-----.-----.---|
A|--33-3-3-3-3-3-3-3~-55-5-5-5-5-5-5-5~-77-7-7-7-7-7-7-7~-77-7-7-7-7-7-7-7-|
D|-------------------------------------------------------------------------|

e|-------------------------------------------------------------------------|
B|-------------------------------------------------------------------------|
G|-------------------------------------------------------------------------|
D|--..-----.-----.----..-----.-----.----..-----.-----.----..-----.-----.---|
A|--33-3-3-3-3-3-3-3~-55-5-5-5-5-5-5-5~-77-7-7-7-7-7-7-7~-77-7-7-7-7-7-7-7-|
D|-------------------------------------------------------------------------|
. - Palm mute

e|-------------------------------------------------|
B|-------------------------------------------------|
G|--------------------12-10-9-10-9-7-9-10-12-10-9--|
D|--3-3-3-3--5-5-5-5-------------------------------|
A|--3-3-3-3--5-5-5-5--10--8-7--8-7-5-7--8-10--8-7--|
D|--3-3-3-3--5-5-5-5-------------------------------|

e|-------------------------------------------------|
B|-------------------------------------------------|
G|--------------------7-9-10-9-7-9-10-12-10-9-7-9--|
D|--3-3-3-3--5-5-5-5-------------------------------|
A|--3-3-3-3--5-5-5-5--5-7--8-7-5-7--8-10--8-7-5-7--|
D|--3-3-3-3--5-5-5-5-------------------------------|

e|--------------------------------------------------|
B|--------------------------------------------------|
G|------5/7-5------5/7-5------5/7-5/7------5/7-5/7--|
D|--3-3--------5-5--------7-7----------7-7----------|
A|--3-3-3/5-3--5-5-3/5-3--7-7-3/5-3/5--7-7-3/5-3/5--|
D|--3-3--------5-5--------7-7----------7-7----------|

e|--------------------------------------------------|
B|--------------------------------------------------|
G|------5/7-5------5/7-5------5/7-5/7------5/7-5/7--|
D|--3-3--------5-5--------7-7----------7-7----------|
A|--3-3-3/5-3--5-5-3/5-3--7-7-3/5-3/5--7-7-3/5-3/5--|
D|--3-3--------5-5--------7-7----------7-7----------|

e|----------------------------------------------------|
B|----------------------------------------------------|
G|----------------------------------------------------|
D|--3-3---------3-3---------5-5---------5-5-----------|
A|--3-3-333-7-3-3-3-333-7-3-5-5-333-7-3-5-5--333-7-8--|
D|--3-3---------3-3---------5-5---------5-5-----------|

e|----------------------------------------------------|
B|----------------------------------------------------|
G|----------------------------------------------------|
D|--3-3---------3-3---------5-5---------5-5-----------|
A|--3-3-333-7-3-3-3-333-7-3-5-5-333-7-3-5-5--333-7-8--|
D|--3-3---------3-3---------5-5---------5-5-----------|

e|--------------|
B|--------------|
G|--------------|
D|--3-3----5-5--|
A|--3-3----5-5--|
D|--3-3----5-5--|

Chorus 3
e|--------------------------------------------------------------|
B|--------------------------------------------------------------|
G|------------------------.-.-.------10-9-7--.-.-.------10-9-7--|
D|--2-2-3-3~---2-2-3-3~---2-2-2-3-3----------2-2-2-3-3----------|
A|--2-2-3-3~---2-2-3-3~---2-2-2-3-3---8-7-5--2-2-2-3-3---8-7-5--|
D|--2-2-3-3~---2-2-3-3~---2-2-2-3-3----------2-2-2-3-3----------|

e|---------------------------------------------------------------|
B|---------------------------------------------------------------|
G|---------------10-9-7---------------12-10-9-10-9---------------|
D|--2-2-2-3-3-3----------2-2-2-3-3-3---------------5-5-5-7-3-3~--|
A|--2-2-2-3-3-3---8-7-5--2-2-2-3-3-3--10--8-7--8-7-5-5-5-7-3-3~--|
D|--2-2-2-3-3-3----------2-2-2-3-3-3---------------5-5-5-7-3-3~--|
. - Palm mute

Song Structure:
Intro 
Verse
Chorus 1
Verse
Chorus 2
Bridge 
Chorus 3

http://www.myspace.com/twentyinchburial
http://www.purevolume.com/twentyinchburial

Tap to rate this tab
# A B C D E F G H I J K L M N O P Q R S T U V W X Y Z