Guitaretab - guitar tabs
Song name
# A B C D E F G H I J K L M N O P Q R S T U V W X Y Z

Twenty Inch Burial - 30 Minutes Journey tab

Twenty Inch Burial - 30 Minutes Journey

Tabs by Punkwolf

Intro 1
e|-------------------------------------------------------------|
B|----------------------------------------------------.---.----|  
G|----------55------------55------------55----------3-3-3-3-3--|
D|-----7-77----7-----7-77----7-----7-77----7-----7--5-5-5-5-5--|
A|--55------------55------------55------------55----3-3-3-3-3--|  
D|-------------------------------------------------------------|

Intro 2
e|-------------------------------------------------------------------|
B|-------------------------------------------------------------------|
G|-------------------------------------------------------------------|
D|--7-7-7-7-9-9-9-9-3-3-3-3-5-5-5-5-7-7-7-7-9-9-9-9-5-5-5-5-7-7-7-7--|
A|--7-7-7-7-9-9-9-9-3-3-3-3-5-5-5-5-7-7-7-7-9-9-9-9-3-3-3-3-5-5-5-5--|
D|--7-7-7-7-9-9-9-9-3-3-3-3-5-5-5-5-7-7-7-7-9-9-9-9-3-3-3-3-5-5-5-5--|

Verse
e|--------------------------------------------|
B|--------------------------------------------|
G|--..------...-----.----..------...-----.----|
D|--77-7-7--555-5-5-5-5--33-3-3--555-5-5-5-5--|
A|--55-5-5--777-7-7-7-7--11-1-1--333-3-3-3-3--|
D|--------------------------------------------|

e|--------------------------------------------|
B|--------------------------------------------|
G|--..------...-----.-------------------------|
D|--77-7-7--555-5-5-5-5--3-3-3-3-3-5-5-5-5-5--|
A|--55-5-5--777-7-7-7-7--1-1-1-1-1-3-3-3-3-3--|
D|--------------------------------------------|

Chorus
e|---------------------------------------------------------------|
B|---------------------------------------------------------------|
G|------------3---------------------------------3----------------|
D|--3-3-3-5-5---5-2-2-2-3-3-/5-3-1-0--3-3-3-5-5---5-3-3-3-3-3-3--|
A|--1-1-1-3-------0-0-0-1-1-----------1-1-1-3-------3-3-3-3-3-3--|
D|--------------------------------------------------3-3-3-3-3-3--|

Bridge 1
e|----------------------------------------------------------------|
B|----------------------------------------------------------------|
G|--------9-10-12-10910--------9-10-12-10910--..-----...-----.----|
D|--0-0-0----------------0-0-0----------------55-5-5-555-5-5-5-5--|
A|--0-0-0-7--8-10--87-8--0-0-0-7--8-10--87-8--33-3-3-222-2-2-2-2--|
D|--0-0-0----------------0-0-0------------------------------------|
[ Tab from: http://www.guitaretab.com/t/twenty-inch-burial/72664.html ]
Bridge 2
e|----------------------------------------------------------------------|
B|----------------------------------------------------------------------|
G|--------9-10-12-10910--------9-10-12-10910--10-10/9-7-5--00-00-00-00--|
D|--0-0-0----------------0-0-0-----------------------------00-00-00-00--|
A|--0-0-0-7--8-10--87-8--0-0-0-7--8-10--87-8---------------00-00-00-00--|
D|--0-0-0----------------0-0-0-----------------------------00-00-00-00--|

Interlude
e|------------------------------------------|
B|------------------------------------------|
G|------------------------------------------|
D|-------------------8----------------------|
A|--5787578757875787----5787578757875787-8--|
D|------------------------------------------|

3rd Chorus
e|-------------------------------------------------------|
B|-------------------------------------------------------|
G|--------------------------------------3----------------|
D|--0-0---2-2-2-3-3-/5-3-1-0--3-3-3-5-5---5-3-3-3-3-3-3--|
A|--0-0---0-0-0-1-1-----------1-1-1-3-------3-3-3-3-3-3--|
D|--0-0-------------------------------------3-3-3-3-3-3--|

e|---------------------------------------------------------------|
B|---------------------------------------------------------------|
G|------------3---------------------------------3----------------|
D|--3-3-3-5-5---5-2-2-2-3-3-/5-3-1-0--3-3-3-5-5---5-3-3-3-3-3-3--|
A|--1-1-1-3-------0-0-0-1-1-----------1-1-1-3-------3-3-3-3-3-3--|
D|--------------------------------------------------3-3-3-3-3-3--|

Outro
e|-------------------------------------------------------------------|
B|-------------------------------------------------------------------|
G|--7-7-7/9-9-9-9-9-9/5-5-5/7-7-9-7-5-7-7-7/9-9-9-9-9-9--------------|
D|------------------------------------------------------3-3-3-3-3-3--|
A|--5-5-5/7-7-7-7-7-7/3-3-3/5-5-7-5-3-5-5-5/7-7-7-7-7-7-3-3-3-3-3-3--|
D|------------------------------------------------------3-3-3-3-3-3--|

Ending
e|--------------------------|
B|--------------------------|
G|--------------------------|
D|--00--00--00--00--00--00--|
A|--00--00--00--00--00--00--|
D|--00--00--00--00--00--00--|

Song Structure:
Intro 1
Intro 2
Verse (2x)
Chorus (2x)
Intro 1
Verse (2x)
Chorus (2x)
Bridge 1 (3x)
Bridge 2
Interlude (3x)
3rd Chorus
Outro (2x)
Ending








Related for 30 Minutes Journey tab
Advertisement will be closed in 10 seconds