Song name
# A B C D E F G H I J K L M N O P Q R S T U V W X Y Z

Twenty One Pilots - Holding Onto You tab

This song is awesome so i transcribed it onto acoustic guitar
Basically 4 separate parts to this song, but you can play it with 5 chords
verse/chorus, pre chorus, bridge, and 2nd pre chorus


I also use a different riff for the intro and parts of the verse

INTRO/VERSE (Im taking over my body...)

e------------------------------------------------------|
B------------------------------------------------------|
G----------------------9-9-9-9-------------------------|
D----9-9-9-9--8-8-8-8--9-9-9-9--9-9-9-9----------------|
A----9-9-9-9--9-9-9-9--7-7-7-7--9-9-9-9----------------|
E-------------------------------7-7-7-7----------------|



VERSE/CHORUS (You musta forgot, you can't trust me)

   Abmin   F#maj    E     B

e-----4------2------0-----2----------------------------|
B-----4------2------0-----4----------------------------|
G-----4------3------1-----4----------------------------|
D-----6------4------2-----4----------------------------|
A-----6------4------2-----2----------------------------|
E-----4------2------0-----x----------------------------|

this also works for "I'll be holding onto you"



PRE-CHORUS (You are surrounding, all my surroundings)

   Emaj  Abmin  B    F#maj

e---7-----4-----2-----2--------------------------------|
B---9-----4-----4-----2--------------------------------|
G---9-----4-----4-----3--------------------------------|
D---9-----6-----4-----4--------------------------------|
A---7-----6-----2-----4--------------------------------|
E---0-----4-----x-----2--------------------------------|



BRIDGE (Entertain my faith)

  Abmin A#min  Bmaj  E

e----4----6----7-----0---------------------------------|
B----4----6----7-----0---------------------------------|
G----4----6----6-----1---------------------------------|
D----6----4----5-----2---------------------------------|
A----6----4----5-----2---------------------------------|
E----4----6----7-----0---------------------------------|


2nd PRE-CHORUS (Lean wit it rock wit it)

   Abmin   F#maj    E     B

e-----4------2------0-----2----------------------------|
B-----4------2------0-----4----------------------------|
G-----4------3------1-----4----------------------------|
D-----6------4------2-----4----------------------------|
A-----6------4------2-----2----------------------------|
E-----4------2------0-----x----------------------------|




those are just the chords.....figure out the strumming with the song

hope you like it

PEACE
Tap to rate this tab
# A B C D E F G H I J K L M N O P Q R S T U V W X Y Z