Song name
# A B C D E F G H I J K L M N O P Q R S T U V W X Y Z

Twenty One Pilots - Holding On To You tab

Standard Tuning

Intro/Verses
Notes in parenthesis are delayed notes.  You can strum it in rhythm if don't have something
to do a delay effect.  The 0's on top e string are optional
e-(0)-(0)(0)(0)--(0)-(0)(0)(0)---(0)-(0)(0)(0)---(0)-(0)(0)(0)--|
b--2--(2)(2)(2)---0--(0)(0)(0)----4--(4)(4)(4)----2--(2)(2)(2)--|
g--4--(4)(4)(4)---4--(4)(4)(4)----4--(4)(4)(4)----4--(4)(4)(4)--|
d--4--(4)(4)(4)---4--(4)(4)(4)----4--(4)(4)(4)----4--(4)(4)(4)--|
a---------------------------------------------------------------|
e---------------------------------------------------------------|

Bass Verse 1
e---------------------------|
b---------------------------|
g---------------------------|
d---------------------------|
a-------------------2-2h4p2-|
e-4--4--2--2--0--0----------|

Bass verse 2 (Does this different variations at certain parts)
e----------------------|
b----------------------|
g----------------------|
d----------------------|
a-------------------2--|
e-4--4--2-----0--0-----|

Break (The ooh-ooh part where synth matches up with the vocals)
e-14----11----------11----14-11-------|
b----14----11----------14-------14-12-|
g-------------13-11-------------------|  2x
d-------------------------------------|
a-------------------------------------|
e-------------------------------------|

Chorus
e-12-12-12-12-11-11-11-11-11-11-11-11--9--9--9--9-|
b-12-12-12-12-12-12-12-12-12-12-12-12-11-11-11-11-|
g-13-13-13-13-13-13-13-13-13-13-13-13-11-11-11-11-|
d-------------------------------------------------|
a-------------------------------------------------|
e-------------------------------------------------|

Bridge
e-----------------------------------------------------------------|
b-----------------------------------------------------------------|
g-------------------------------------------------9-9-9-9-9-9-9-9-|
d-6-6-6-6-6-6-6-6-8-8-8-8-8-8-8-8-9-9-9-9-9-9-9-9-9-9-9-9-9-9-9-9-|
a-6-6-6-6-6-6-6-6-8-8-8-8-8-8-8-8-9-9-9-9-9-9-9-9-7-7-7-7-7-7-7-7-|
e-4-4-4-4-4-4-4-4-6-6-6-6-6-6-6-6-7-7-7-7-7-7-7-7-0-0-0-0-0-0-0-0-|
Tap to rate this tab
# A B C D E F G H I J K L M N O P Q R S T U V W X Y Z