Song name
# A B C D E F G H I J K L M N O P Q R S T U V W X Y Z

Twenty One Pilots - Car Radio tab

Piano for Whole Song
e-1~---1~---3~-5~---3~--|
b-1~---1~---3~-5~---3~--|
g-2~---2~---4~-5~---4~--|
d-3~---3~---5~-7~---5~--|
a-3~---3~---5~-7~---5~--|
e-1~---1~---3~-5~---3~--|

other variation plays this at some parts.
e-1~---1~---3~-5~---3~---|
b-1~---1~---3~-5~---3~-3-|
g-2~---2~---4~-5~---4~-4-|
d-3~---3~---5~-7~---5~---|
a-3~---3~---5~-7~---5~---|
e-1~---1~---3~-5~---3~---|

Backup Synth at certain points in song
e-5~------------------5~------------------|
b------8~---5~---8~--------8~---5~--------|
g------------------------------------7~---|
d-----------------------------------------|
a-----------------------------------------|
e-----------------------------------------|

Solo
e-------------------------------------------------------|
b-------------------------------------------------12-12-|
g-14-14-14-14-14-14-14-14-12-14-14-14-14-14-14-14-------|
d-------------------------------------------------------|
a-------------------------------------------------------|
e-------------------------------------------------------|

e-------------------------------------------------|
b-13-13-13-13-13-12-13-15-12-12-12-12-12----12-13-|
g----------------------------------------14-------|
d-------------------------------------------------|
a-------------------------------------------------|
e-------------------------------------------------|
Tap to rate this tab
# A B C D E F G H I J K L M N O P Q R S T U V W X Y Z