Song name
# A B C D E F G H I J K L M N O P Q R S T U V W X Y Z

Twenty One Pilots - Addict With A Pen tab

Piano part translated into guitar. Great song, great Band!


Main Bit: Repeated through most of the song, if you want to you can throughout all of it.
Pattern might be slightly off but 99.9% certain they're the right notes :)
e|---------------------------------------------------------------------------|
B|---------------------------------------------------------------------------|
G|---------------------------------------------------------------------------|
D|------9----9----9----7----7----7------9---9---9---7--7--7------------------|
A|---10---10----10--10---10---10------9---9---9---9--9--9--------------------|
E|---------------------------------------------------------------------------|

e|---------------------------------------------------------------------------|
B|---------------------------------------------------------------------------|
G|---------------------------------------------------------------------------|
D|------9---9---9---7---7---7-----7--7--7--7--7--7---5--5--5--5--------------|
A|----7---7---7---7---7---7-----3---3-3--3--3--3---3--3--3--3----------------|
E|---------------------------------------------------------------------------|

Power chords used in verse type thing

e|---------------------------------------------------------------------------|
B|---------------------------------------------------------------------------|
G|--------------------5------------------------------------------------------|
D|---5-----4-----2----5------------------------------------------------------|
A|---5-----4-----2----3------------------------------------------------------|
E|---3-----2-----0-----------------------------------------------------------|

Those are the basics, strumming pattern for "verse" or whatever you wish to call it is 
fairly simple and easy to hear chord changes in song.
Tap to rate this tab
# A B C D E F G H I J K L M N O P Q R S T U V W X Y Z