Song name
# A B C D E F G H I J K L M N O P Q R S T U V W X Y Z

Twenty Twenty - Story Of Our Lifes tab

http://www.myspace.com/twentytwentyband

Offical Video:
http://www.youtube.com/watch?v=i6Osf1EXb7o

Intro:
E|---------------------------|--------------------------|
B|----5----6----8----6----56-|----5----5----3----3----3-| 
G|-55---55---55---55---55----|-55---55---55---55---55---| x2
D|---------------------------|--------------------------|
A|---------------------------|--------------------------|
D|---------------------------|--------------------------|

Verse:
E|----|
B|----|
G|-5~-|
D|-5~-|
A|-3~-|
D|----|

E|---------------------|---------------------|---------------------|--------------------|
B|---------------------|---------------------|---------------------|--------------------|
G|---------------------|---------------------|---------------------|--------------------|
D|----0----0----0----0-|----2----2----2----2-|----3----3----3----3-|----5----5----------|
A|-00-0-00-0-00-0-00-0-|-22-2-22-2-22-2-22-2-|-33-3-33-3-33-3-33-3-|-55-5-55-5-55555555-|
D|-00-0-00-0-00-0-00-0-|-22-2-22-2-22-2-22-2-|-33-3-33-3-33-3-33-3-|-55-5-55-5-55555555-|
Pm ..   ..   ..   ..     ..   ..   ..   ..     ..   ..   ..   ..     ..   ..   ........

E|---------------------|---------------------|---------------------|---------------------|
B|---------------------|---------------------|---------------------|---------------------|
G|---------------------|---------------------|---------------------|---------------------|
D|----0----0----0----0-|----2----2----2----2-|----3----3----3----3-|----5----5----5----5-|
A|-00-0-00-0-00-0-00-0-|-22-2-22-2-22-2-22-2-|-33-3-33-3-33-3-33-3-|-55-5-55-5-55-5-55-5-|
D|-00-0-00-0-00-0-00-0-|-22-2-22-2-22-2-22-2-|-33-3-33-3-33-3-33-3-|-55-5-55-5-55-5-55-5-|
Pm ..   ..   ..   ..     ..   ..   ..   ..     ..   ..   ..   ..     ..   ..   ..   ..

Chorus:
E|-----------------|-----------------|-----------------|-----------------|
B|-----------------|-----------------|-----------------|-----------------|
G|-5-5-5-5-5-5-5-5-|-----------------|-5-5-5-5-5-5-5-5-|-----------------|
D|-5-5-5-5-5-5-5-5-|-3-3-3-3-3-3-3-3-|-5-5-5-5-5-5-5-5-|-3-3-3-3-3-3-3-3-|
A|-3-3-3-3-3-3-3-3-|-3-3-3-3-3-3-3-3-|-3-3-3-3-3-3-3-3-|-3-3-3-3-3-3-3-3-|
D|-----------------|-3-3-3-3-3-3-3-3-|-----------------|-3-3-3-3-3-3-3-3-|

E|-----------------|-----------------|-----------------|----|
B|-----------------|-----------------|-----------------|----|
G|-2-2-2-2-2-2-2-2-|-----------------|-----------------|----|
D|-2-2-2-2-2-2-2-2-|-5-5-5-5-5-5-5-5-|-3-3-3-3-3-3-3-3-|-5~-|
A|-0-0-0-0-0-0-0-0-|-5-5-5-5-5-5-5-5-|-3-3-3-3-3-3-3-3-|-5~-|
D|-----------------|-5-5-5-5-5-5-5-5-|-3-3-3-3-3-3-3-3-|-5~-|

Re-Intro:
E|---------------------------|--------------------------|
B|----5----6----8----6----56-|----5----5----3----3----3-| 
G|-55---55---55---55---55----|-55---55---55---55---55---| x2
D|---------------------------|--------------------------|
A|---------------------------|--------------------------|
D|---------------------------|--------------------------|

Verse:
E|---------------------------------|---------------------------------|
B|---------------------------------|---------------------------------|
G|---------------------------------|---------------------------------|
D|-5-5-5-5-5-5-5-5-5-5-5-5-5-5-5-5-|---------------------------------|
A|-3-3-3-3-3-3-3-3-3-3-3-3-3-3-3-3-|-3-3-3-3-3-3-3-3-3-3-3-3-3-3-3-3-|
D|---------------------------------|-3-3-3-3-3-3-3-3-3-3-3-3-3-3-3-3-|
Pm...................................................................

E|---------------------|---------------------|---------------------|--------------------|
B|---------------------|---------------------|---------------------|--------------------|
G|---------------------|---------------------|---------------------|--------------------|
D|----0----0----0----0-|----2----2----2----2-|----3----3----3----3-|----5----5----------|
A|-00-0-00-0-00-0-00-0-|-22-2-22-2-22-2-22-2-|-33-3-33-3-33-3-33-3-|-55-5-55-5-55555555-|
D|-00-0-00-0-00-0-00-0-|-22-2-22-2-22-2-22-2-|-33-3-33-3-33-3-33-3-|-55-5-55-5-55555555-|
Pm ..   ..   ..   ..     ..   ..   ..   ..     ..   ..   ..   ..     ..   ..   ........

E|---------------------|---------------------|---------------------|---------------------|
B|---------------------|---------------------|---------------------|---------------------|
G|---------------------|---------------------|---------------------|---------------------|
D|----0----0----0----0-|----2----2----2----2-|----3----3----3----3-|----5----5----5----5-|
A|-00-0-00-0-00-0-00-0-|-22-2-22-2-22-2-22-2-|-33-3-33-3-33-3-33-3-|-55-5-55-5-55-5-55-5-|
D|-00-0-00-0-00-0-00-0-|-22-2-22-2-22-2-22-2-|-33-3-33-3-33-3-33-3-|-55-5-55-5-55-5-55-5-|
Pm ..   ..   ..   ..     ..   ..   ..   ..     ..   ..   ..   ..     ..   ..   ..   ..

Chorus:
E|-----------------|-----------------|-----------------|-----------------|
B|-----------------|-----------------|-----------------|-----------------|
G|-5-5-5-5-5-5-5-5-|-----------------|-5-5-5-5-5-5-5-5-|-----------------|
D|-5-5-5-5-5-5-5-5-|-3-3-3-3-3-3-3-3-|-5-5-5-5-5-5-5-5-|-3-3-3-3-3-3-3-3-|
A|-3-3-3-3-3-3-3-3-|-3-3-3-3-3-3-3-3-|-3-3-3-3-3-3-3-3-|-3-3-3-3-3-3-3-3-|
D|-----------------|-3-3-3-3-3-3-3-3-|-----------------|-3-3-3-3-3-3-3-3-|

E|-----------------|-----------------|-----------------|----|
B|-----------------|-----------------|-----------------|----|
G|-2-2-2-2-2-2-2-2-|-----------------|-----------------|----|
D|-2-2-2-2-2-2-2-2-|-5-5-5-5-5-5-5-5-|-3-3-3-3-3-3-3-3-|-5~-|
A|-0-0-0-0-0-0-0-0-|-5-5-5-5-5-5-5-5-|-3-3-3-3-3-3-3-3-|-5~-|
D|-----------------|-5-5-5-5-5-5-5-5-|-3-3-3-3-3-3-3-3-|-5~-|

Solo:
E|-------------------|-----------------|-------------------|------------------------|
B|---8-6-5-6-5-6---3-|---8-6-5-6-----8-|---8-6-5-6-5-6---3-|----------------8-6-5-6-|
G|-5-------------5---|-5---------555---|-5-------------5---|-5555-7777-9999---------|
D|-------------------|-----------------|-------------------|------------------------|
A|-------------------|-----------------|-------------------|------------------------|
D|-------------------|-----------------|-------------------|------------------------|

E|-------------------|-----------------|-------------------|------------------------|----|
B|---8-6-5-6-5-6---3-|---8-6-5-6-----8-|---8-6-5-6-5-6---3-|----------------8-6-5-6-|-5~-|
G|-5-------------5---|-5---------555---|-5-------------5---|-5555-7777-9999---------|----|
D|-------------------|-----------------|-------------------|------------------------|----|
A|-------------------|-----------------|-------------------|------------------------|----|
D|-------------------|-----------------|-------------------|------------------------|----|

Chorus:
E|-----------------|-----------------|-----------------|-----------------|
B|-----------------|-----------------|-----------------|-----------------|
G|-5-5-5-5-5-5-5-5-|-----------------|-5-5-5-5-5-5-5-5-|-----------------|
D|-5-5-5-5-5-5-5-5-|-3-3-3-3-3-3-3-3-|-5-5-5-5-5-5-5-5-|-3-3-3-3-3-3-3-3-|
A|-3-3-3-3-3-3-3-3-|-3-3-3-3-3-3-3-3-|-3-3-3-3-3-3-3-3-|-3-3-3-3-3-3-3-3-|
D|-----------------|-3-3-3-3-3-3-3-3-|-----------------|-3-3-3-3-3-3-3-3-|

E|-----------------|-----------------|-----------------|----|
B|-----------------|-----------------|-----------------|----|
G|-2-2-2-2-2-2-2-2-|-----------------|-----------------|----|
D|-2-2-2-2-2-2-2-2-|-5-5-5-5-5-5-5-5-|-3-3-3-3-3-3-3-3-|-5~-|
A|-0-0-0-0-0-0-0-0-|-5-5-5-5-5-5-5-5-|-3-3-3-3-3-3-3-3-|-5~-|
D|-----------------|-5-5-5-5-5-5-5-5-|-3-3-3-3-3-3-3-3-|-5~-|

Outro:
E|---------------------------|--------------------------|
B|----5----6----8----6----56-|----5----5----3----3----3-|
G|-55---55---55---55---55----|-55---55---55---55---55---|
D|---------------------------|--------------------------|
A|---------------------------|--------------------------|
D|---------------------------|--------------------------|

E|-------|
B|-------|
G|-5~--5-|
D|-5~--5-|
A|-3~--3-|
D|-------|
Tap to rate this tab
# A B C D E F G H I J K L M N O P Q R S T U V W X Y Z