Twenty Twenty - Girl Next Door tab

http://www.myspace.com/twentytwentyband

Twenty Twenty - Girl Next Door

Drop D

Piano Riff
E|----12---------------------|
B|-10--- 10-12-10------------| 
G|---------------------------| 
D|---------------------------|
A|---------------------------|
D|---------------------------|

Guitar Intro
E|---------------------------|     
B|---------------------------|     
G|--2--/--7------------------| 
D|--2--/--7------------------|     
A|--0--/--5------------------|      
D|---------------------------|

Verse
E|---------------------------|     
B|---------------------------|     
G|--2--/--7------------------| 
D|--2--/--7------------------|     
A|--0--/--5------------------|      
D|---------------------------|

E|---------------------------|
B|---------------------------| 
G|---------------------------| 
D|--4--/--2------------------|
A|--4--/--2------------------|
D|--4--/--2------------------|

Pre Chorus
E|---------------------------|------------------|    |------|
B|---------------------------|------------------|    |------| 
G|--7-7-----7-7--------------|--2-2-----2-2-----|    |-2222-|
D|--7-7-----7-7--------------|--2-2-----2-2-----|    |-2222-|
A|--5-5-----5-5--------------|--0-2-----0-0-----|    |-0000-|
D|---------------------------|------------------|    |------| 

Chorus
E|---------------------------------|---------------------------------|
B|---------------------------------|---------------------------------| 
G|-7-7-7-7-7-7-7-7-7-7-7-7-7-7-7-7-|-2-2-2-2-2-2-2-2-2-2-2-2-2-2-2-2-|
D|-7-7-7-7-7-7-7-7-7-7-7-7-7-7-7-7-|-2-2-2-2-2-2-2-2-2-2-2-2-2-2-2-2-|
A|-5-5-5-5-5-5-5-5-5-5-5-5-5-5-5-5-|-0-0-0-0-0-0-0-0-0-0-0-0-0-0-0-0-|
D|---------------------------------|---------------------------------|

E|---------------------------------|---------------------------------|
B|---------------------------------|---------------------------------| 
G|---------------------------------|---------------------------------|
D|-4-4-4-4-4-4-4-4-4-4-4-4-4-4-4-4-|-2-2-2-2-2-2-2-2-2-2-2-2-2-2-2-2-|
A|-4-4-4-4-4-4-4-4-4-4-4-4-4-4-4-4-|-2-2-2-2-2-2-2-2-2-2-2-2-2-2-2-2-|
D|-4-4-4-4-4-4-4-4-4-4-4-4-4-4-4-4-|-2-2-2-2-2-2-2-2-2-2-2-2-2-2-2-2-|

Chorus Cont.
E|---------------------------------|
B|---------------------------------| 
G|-4-4-----6-6-----7-7-----9-9-----|
D|-4-4-----6-6-----7-7-----9-9-----|
A|-2-2-----4-4-----5-5-----7-7-----|
D|---------------------------------|

Chorus 2
E|-------------|-------------|-------------|---------------------------------|
B|-------------|-------------|-------------|---------------------------------|
G|-7-7-----7-7-|-2-2-----2-2-|-------------|---------------------------------|
D|-7-7-----7-7-|-2-2-----2-2-|-4-4-----4-4-|-2-2-2-2-2-2-2-2-2-2-2-2-2-2-2-2-|
A|-5-5-----5-5-|-0-0-----0-0-|-4-4-----4-4-|-2-2-2-2-2-2-2-2-2-2-2-2-2-2-2-2-|
D|-------------|-------------|-4-4-----4-4-|-2-2-2-2-2-2-2-2-2-2-2-2-2-2-2-2-|

End
E|---------------|
B|---------------| 
G|-4-----6-----7-|
D|-4-----6-----7-|
A|-2-----4-----5-|
D|---------------|

Order: (Kinda Confusing)
Piano Riff x4  Guitar Intro x4
Verse x3
Verse End x1
Pre Chorus x2
Pre Chorus End x1
Chorus x1
Chorus Cont x1
Piano Riff x4  Guitar Intro x4
Verse x3
Verse End x1
Pre Chorus x2
Pre Chorus End x2
Chorus x1
Verse x4
Chorus 2 x1
Chorus x1
Chorus Cont x2
End x1

``Tabbed By Daniel Tribe``
Tap to rate this tab
 
# A B C D E F G H I J K L M N O P Q R S T U V W X Y Z