Song name
# A B C D E F G H I J K L M N O P Q R S T U V W X Y Z

Twin Atlantic - I Cave In Acoustic tab

-------------------------------------------------------------------------------
	I CAVE IN (BBC - T IN THE PARK ACOUSTIC SESSION) - Twin Atlantic
-------------------------------------------------------------------------------
Tabbed by: Stewart Sands
Email: stewart.sands@yahoo.co.uk

Here's an awesome band performing a really different acoustic version of their 
song 'I Cave In'. This version is from the 'What Is Light? Where Is Laughter?' 
single but if you don't have a copy of this recording you can listen to the 
same version on YouTube on one of their acoustic session videos.

This isn't exactly how Sam plays it but it fits and works really well.

The strum pattern I've tabbed is pretty rough but if you listen to the song 
you can figure out what you think sounds best.

This is my first tab so feel free to let me know what you think =) cheers.


Tuning: Drop D - DADGBE

Intro                                                                    
                                                                           x2
e|---------------------------------------------------------------------------|
B|-33x-33x-33x-3333---33x-33x-33x-3333---33x-33x-33x-3333---33x-33x-33x-3333-|
G|-00x-00x-00x-0000---00x-00x-00x-0000---00x-00x-00x-0000---00x-00x-00x-0000-|
D|-55x-55x-55x-5555---55x-55x-55x-5555---55x-55x-55x-5555---55x-55x-44x-4444-|
A|-55x-55x-55x-5555---55x-55x-55x-5555---33x-33x-33x-3333---55x-55x-55x-5555-|
d|-55x-55x-55x-5555---00x-00x-00x-0000---------------------------------------|


Verse 1

e|---------------------------------------------------------------------------|
B|-3~-----------------3~-----------------3~-----------------3~------3~-------|
G|-0~-----------------0~-----------------0~-----------------0~------0~-------|
D|-5~-----------------5~-----------------5~-----------------5~------5~-------|
A|-5~-----------------5~-----------------3~-----------------5~---------------|
d|-5~-----------------0~-----------------------------------------------------|


Verse 2: repeat intro x1 


Bridge

e|-2-2-2-2-2-2-2-2----0-0-0-0-0-0-0-0----2-2-2-2-2-2-2-2----0-0-0-0-0-0------|
B|-3-3-3-3-3-3-3-3----3-3-3-3-3-3-3-3----3-3-3-3-3-3-3-3----3-3-3-3-3-3------|
G|-0-0-0-0-0-0-0-0----0-0-0-0-2-2-2-2----0-0-0-0-0-0-0-0----0-0-0-0-2-2------|
D|-x-x-x-x-x-x-x-x----5-5-5-5-2-2-2-2----x-x-x-x-x-x-x-x----5-5-5-5-2-2------|
A|-3-3-3-3-3-3-3-3----5-5-5-5-0-0-0-0----3-3-3-3-3-3-3-3----5-5-5-5-0-0------|
d|--------------------5-5-5-5-------------------------------5-5-5-5----------|


Chorus
                                          x4
e|--------------------0-00-000---0-00-000--|
B|--------------------3-33-333---0-00-000--|
G|-6-66-666-666-666---2-22-222---4-44-444--|
D|-4-44-444-444-444---0-00-000---4-44-444--|
A|-4-44-444-444-444--------------2-22-222--|
d|-4-44-444-444-444------------------------|


Verse 3 (repeat Verse 1)

Verse 4 (repeat Verse 2)

Bridge

Chorus (strum pattern changes on the last line)

Repeat Intro

Chorus (strum pattern varies again but the chords stay the same)



| ~  vibrato
| x  mute note


Lyrics

V1. This is what you need to stay for
    And I can't always be here in the middle
    I am what you need to take there
    I can't feel this, I can't feel this

V2. Light from the north, air from the sea
    Is it difficult to be there in the middle
    I am what you need to take there
    I can't feel this, I can't feel this

Br. Well congratulations, may we present
    Your house is on fire, your insides cave in
    Another dilema, another mistake
    Another and now I'm awake

Ch. And if I try, then I can't swim
    I only have to cross the ocean, have to cross the ocean, in a
    Day, then I can't swim
    I only have to cross the ocean, have to cross the ocean

V3. 2001, 3002
    I have crawled to meet you in the middle
    This is what you need to take there
    I can't feel this, I can't feel this

V4. Take a hand and hold on tight 'cos
    This is what we'll do, we'll stick together
    I am what you need to take there
    I can't feel this, I can't help this


===============================================================================
Tap to rate this tab
# A B C D E F G H I J K L M N O P Q R S T U V W X Y Z