Song name
# A B C D E F G H I J K L M N O P Q R S T U V W X Y Z

Twin Atlantic - Audience And Audio tab

----------------------------------------------------------------------------
           Twin Atlantic - Audience and Audio (Intro) 
----------------------------------------------------------------------------
 
Tabbed by: Jamie Gibb
Email: Jamie-Gibb@hotmail.co.uk

Tuning: Standard
   
    e|-------------------------|--------------------------------|
    B|---9--9h10p9-------------|--9--9h10p9---------------------|
    G|--------------9--11--11--|-------------9--8--8--8h9p8-----|
    D|-------------------------|-----------------------------9--|
    A|-------------------------|--------------------------------|
    E|-------------------------|--------------------------------|

    e|-------------------------|--------------------------------|
    B|---9--9h10p9-------------|--9--9h10p9-----------X-X-X-X---|
    G|--------------9--11--11--|-------------9--8--8--X-X-X-X---|
    D|-------------------------|----------------------X-X-X-x---|
    A|-------------------------|--------------------------------|
    E|-------------------------|--------------------------------|
                                                      
    e|-------------------------|--------------------------------|
    B|---9--9h10p9-------------|--9--9h10p9---------------------|
    G|--------------9--11--11--|-------------9--8--8------------|  x2
    D|-------------------------|--------------------------------|
    A|-------------------------|--------------------------------|   
    E|-------------------------|--------------------------------|


Key: 
| /  slide up
| \  slide down
| h  hammer-on
| p  pull-off
| ~  vibrato
| +  harmonic
| x  Mute note
============================================================================
Tap to rate this tab
# A B C D E F G H I J K L M N O P Q R S T U V W X Y Z