Song name
# A B C D E F G H I J K L M N O P Q R S T U V W X Y Z

Twin Atlantic - Carribean War Syndrome tab

-------------------------------------------------------------------------------
			     Carribean War Syndrome - Twin Atlantic
-------------------------------------------------------------------------------
Tabbed by: Jamie Gibb	
Email:  Jamie-Gibb@hotmail.co.uk

Tuning: Drop D (DADGBe)

e|-----------------------------------------------|-----------------------------------------------|
B|-----------------------------------------------|-----------------------------------------------|
G|-----------------------------------------------|-----------------------------------------------|
D|--------0--------0--------0--------0--------0--|--------0--------0--------0--------0--------0--|
A|-----4--------4--------4--------4--------4-----|-----4--------4--------4--------4--------4-----|
D|--0--------0--------0--------0--------0--------|--0--------0--------0--------0--------0--------|

e|-----------------------------------------------|-----------------------------------------------|
B|-----------------------------------------------|-----------------------------------------------|
G|-----------------------------------------------|-----------------------------------------------|
D|--------0--------0--------0--------0--------0--|--------0--------0-----0--------0-------0----0-|
A|-----4--------4--------4--------4--------4-----|-----0--------0--------------0-------0---------|
D|--7--------7--------7--------7--------7--------|--5--------5--------5-----7-------7--------7---|



| /  slide up
| \  slide down
| h  hammer-on
| p  pull-off
| ~  vibrato
| +  harmonic
| x  Mute note
===============================================================================
Tap to rate this tab
 
# A B C D E F G H I J K L M N O P Q R S T U V W X Y Z