Song name
# A B C D E F G H I J K L M N O P Q R S T U V W X Y Z

Twin Atlantic - Audience And Audio chords

Heey
This was tabbed by ear so message me if you have any improvements on it :) i can't 
be bothered to tab after the 2nd chorus, go figure it out yourselves you lazy bums ;)

Lead Guitar

Intro and Verse
e-----------------------------------------\
b-9-9h10p9---------9-9h10p9--------------- \
g----------9h11-11----------9p8-8-8h9p8---  \
d---------------------------------------9-   \
a-----------------------------------------    \
E-----------------------------------------     \
                                                 \ X2  
e-----------------------------------------     /
b-9-9h10p9---------9-9h10p9-------x-x-x-x-    /
g----------9h11-11----------9p8-8-x-x-x-x-   /
d---------------------------------x-x-x-x-  /
a----------------------------------------- /
E-----------------------------------------/

Pre Chorus X2
e-----------------------------------------------------------------------|
b-----------------------------------------------------------------------|
g-8h9-8h9-8h9-8h9-8h9-8h9-8h9-8-9h11-9h11-9h11-9h11-9h11-9h11-9h11-9----|
d-----------------------------------------------------------------------|
a-----------------------------------------------------------------------|
E-----------------------------------------------------------------------|

e-----------------------------------------------------------------------|
b-----------------------------------------------------------------------|
g-8h9-8h9-8h9-8-11h13-11h13-11h13-11-8h9-8h9-8h9-8-11h13-11h13-11h13-11-|   
d-----------------------------------------------------------------------|
a-----------------------------------------------------------------------|
E-----------------------------------------------------------------------|

Chorus X4
e--------------------------------|
b------12------12--10-9---10-9---|
g----9-------9----------9------9-|
d-11------11---------------------|
a--------------------------------|
E--------------------------------|

Verse 2
e-----------------------------------------------------|
b-9-9-9-9-9h10p9---------9-9-9-9-9h10p9---------------| 
g----------------9h11-11----------------9p8-8-8h9p8---|  
d---------------------------------------------------9-|   
a-----------------------------------------------------|    
E-----------------------------------------------------|

e-----------------------------------------\
b-9-9h10p9---------9-9h10p9--------------- \
g----------9h11-11----------9p8-8-8h9p8---  \  X3 
d---------------------------------------9-  / 
a----------------------------------------- /   
E-----------------------------------------/

Chorus X4
e--------------------------------|
b------12------12--10-9---10-9---|
g----9-------9----------9------9-|
d-11------11---------------------|
a--------------------------------|
E--------------------------------|


Rhythm Guitar

Intro and Verse
e----4-4-------------4-4-------\
b------------------------------ \
g-6--6-6--6-6-6---6--6-6--6-6-6  \
d-6--6-6--6-6-6---6--6-6--6-6-6   \
a-4-------4-4-4---4-------4-4-4    \
E------------------------------     \
                                      \  X2
e------------------------------     /
b------------------------------    /
g-2--4-4--2-2-2---2--4-4--2-2-2   /
d-2--2-2--2-2-2---2--2-2--2-2-2  /
a-0--0-0--0-0-0---0--0-0--0-0-0 / 
E------------------------------/

Pre Chorus X2
e-------------------|
b-------------------|
g-------2-----6-----|
d-4-----2-X16-6-X32-|
a-4-X16-0-----4-----|
E-2-----------------|

Chorus X2
e-------------------|
b-------------------|
g-2-----4-----6-----|
d-2-X16-4-X16-6-X32-|
a-0-----2-----4-----|
E-------------------|

Verse 2
e----4-4-------------4-4-------\
b------------------------------ \
g-6--6-6--6-6-6---6--6-6--6-6-6  \
d-6--6-6--6-6-6---6--6-6--6-6-6   \
a-4-------4-4-4---4-------4-4-4    \
E------------------------------     \
                                      \  X2
e------------------------------     /
b------------------------------    /
g-2--4-4--2-2-2---2--4-4--2-2-2   /
d-2--2-2--2-2-2---2--2-2--2-2-2  /
a-0--0-0--0-0-0---0--0-0--0-0-0 / 
E------------------------------/

Pre Chorus 2 X2
e-------------------|
b-------------------|
g-------2-----6-----|
d-4-----2-X16-6-X32-|
a-4-X16-0-----4-----|
E-2-----------------|

Chorus 2 X2
e-------------------|
b-------------------|
g-2-----4-----6-----|
d-2-X16-4-X16-6-X32-|
a-0-----2-----4-----|
E-------------------|
Tap to rate this tab
# A B C D E F G H I J K L M N O P Q R S T U V W X Y Z