Song name
# A B C D E F G H I J K L M N O P Q R S T U V W X Y Z

Twin Atlantic - Youre Turning Into John Wayne tab

I love this song, sooooooo good :)


Lead:

E -|--------------------------------------------------------------------------|
B -|---------------------------------------------------------------0--------1-|
G -|--------0---------0--------------------------0--------0-------------------|
D -|----0-2-------0-2------2-4-0----2-4-0----0-2------0-2------0-2------0-2---|
A -|---------------------------------------3--------3--------3--------3-------|
C -|-2-2-------2-2-------0--------0-------------------------------------------|
im not sure how many times you play it

Rhythm:

E -|-----------------------------------------------------------------|
B -|-----------------------------------------------------------------|
G -|-----------------------------------------------------------------|
D -|-2-2-2-2-2-2-2-2-2-2-2-2-2-2-2-2-0-0-0-0-0-0-0-0-0-0-0-0-0-0-0-0-|
A -|-2-2-2-2-2-2-2-2-2-2-2-2-2-2-2-2-0-0-0-0-0-0-0-0-0-0-0-0-0-0-0-0-|
D -|-2-2-2-2-2-2-2-2-2-2-2-2-2-2-2-2-0-0-0-0-0-0-0-0-0-0-0-0-0-0-0-0-|

E -|--------------------------------|
B -|--------------------------------|
G -|-5-5-5-5-5-5-5-5-5-5-5-5-5-5-5-5|
D -|-5-5-5-5-5-5-5-5-5-5-5-5-5-5-5-5|
A -|-3-3-3-3-3-3-3-3-3-3-3-3-3-3-3-3|
D -|--------------------------------|

Again, i'm not sure how many times you play it. But let the Lead play its part once or 
before the rhythm comes in.
Tap to rate this tab
# A B C D E F G H I J K L M N O P Q R S T U V W X Y Z