Song name
# A B C D E F G H I J K L M N O P Q R S T U V W X Y Z

Twin Atlantic - Carribean War Syndrome tab

-------------------------------------------------------------------------------
			     CARRIBEAN WAR SYNDROME - Twin Atlantic
-------------------------------------------------------------------------------
Tabbed by: Sam Morris
Email: mygibsonlespaul01@hotmail.co.uk

Tuning: Drop D

Intro

e|-----------------------------------------------10--------------------------|
B|-------------------------------------------10------------------------------|
G|-11-11-11-11-11-11-11-11-11-11-11-11-11-11---------11-11-11-11-11-11-11-11-|
D|---------------------------------------------------------------------------| 
A|---------------------------------------------------------------------------|
D|---------------------------------------------------------------------------|

e|---------------------------------------------------------------------------|
B|---------------------------------------------------------------------------|
G|---------------------------------------------------------------------------|
D|-----0-----0-----0-----0-----0-------0-----0-----0-----0-----0-------------|
A|---4-----4-----4-----4-----4-------4-----4-----4-----4-----4---------------|
D|-0-----0-----0-----0-----0-------0-----0-----0-----0-----0-----------------|

e|---------------------------------------------------------------------------|
B|---------------------------------------------------------------------------|
G|-------------------------------------------------------------0-------------|
D|-----0-----0-----0-----0-----0-------0-----0---0-----0-----0---------------|
A|---4-----4-----4-----4-----4-------4-----4---------4-----4-----------------|
D|-7-----7-----7-----7-----7-------4-----4-----4---5-----5-------------------|

Verse

e|---------------------------------------------------------------------------|
B|---------------------------------------------------------------------------|
G|---------------------------------------------------------------------------|
D|-----0-----0-----0-----0-----0-------0-----0-----0-----0-----0-------------|
A|---4-----4-----4-----4-----4-------4-----4-----4-----4-----4---------------|
D|-0-----0-----0-----0-----0-------0-----0-----0-----0-----0-----------------|

e|---------------------------------------------------------------------------|
B|---------------------------------------------------------------------------|
G|-------------------------------------------------------------0-------------|
D|-----0-----0-----0-----0-----0-------0-----0---0-----0-----0---------------|
A|---4-----4-----4-----4-----4-------4-----4---------4-----4-----------------|
D|-7-----7-----7-----7-----7-------4-----4-----4---5-----5-------------------|

e|---------------------------------------------------------------------------|
B|---------------------------------------------------------------------------|
G|---------------------------------------------------------------------------|
D|-----9-----9-----9-----9-----9-------9-----9-----9-----9-----9-------------|
A|---0-----0-----0-----0-----0-------0-----0-----0-----0-----0---------------|
D|-9-----9-----9-----9-----9-------0-----0-----0-----0-----0-----------------|

e|---------------------------------------------------------------------------|
B|---------------------------------------------------------------------------|
G|---------------------------------------------------------------------------|
D|-----7-----7-----7-----7-----7-------7-----7-----7-----7-----7-------------|
A|---5-----5-----5-----5-----5-------7-----7-----7-----7-----7---------------|
D|-0-----0-----0-----0-----0-------5-----5-----5-----5-----5-----------------|

e|---------------------------------------------------------------------------|
B|---------------------------------------------------------------------------|
G|---------------------------------------------------------------------------|
D|------12------12------12------12------12-------9-----9-----9-----9-----9---|
A|----0-------0-------0-------0-------0--------0-----0-----0-----0-----0-----|
D|-12------12------12------12------12--------9-----9-----9-----9-----9-------|

e|---------------------------------------------------------------------------|
B|---------------------------------------------------------------------------|
G|---------------------------------------------------------------------------|
D|-----7-----7-----7-----7-----7-------5-----5-----5-------------------------|
A|---0-----0-----0-----0-----0-------0-----0-----0---------------------------|
D|-7-----7-----7-----7-----7-------5-----5-----5-----------------------------|

e|---------------------------------------------------------------------------|
B|---------------------------------------------------------------------------|
G|---------------------------------------------------------------------------|
D|-2-2-2---2-2-2--2-2-2-2-2---2-2-2---2-2-2--2-2-2-2-------------------------|
A|-2-2-2---2-2-2--2-2-2-2-2---2-2-2---2-2-2--2-2-2-2-------------------------|
D|-2-2-2---2-2-2--2-2-2-2-2---2-2-2---2-2-2--2-2-2-2-------------------------|

Chorus

e|---------------------------------------------------------------------------|
B|---------------------------------------------------------------------------|
G|-------------------------------8-8-8-8-8-8-8-8-8-8-8-8-8-8-----------------|
D|-7-7-7-7-7-7-7-7-7-7-7-7-7-7---9-9-9-9-9-9-9-9-9-9-9-9-9-9-----------------|
A|-7-7-7-7-7-7-7-7-7-7-7-7-7-7---7-7-7-7-7-7-7-7-7-7-7-7-7-7-----------------|
D|-7-7-7-7-7-7-7-7-7-7-7-7-7-7---7-7-7-7-7-7-7-7-7-7-7-7-7-7-----------------|

Bridge thing

e|---------------------------------------------------------------------------|
B|---------------------------------------------------------------------------|
G|-8-8-8---8-8-8--------------8-8-8---8-8-8----------------------------------|
D|-9-9-9---9-9-9--9-9-9-9-9---9-9-9---9-9-9--9-9-9-9-9-----------------------| (Fade Out)
A|-7-7-7---7-7-7--7-7-7-7-7---7-7-7---7-7-7--7-7-7-7-7-----------------------|
D|---------------------------------------------------------------------------|

Verse 2

Guitar 1
e|---------------------------------------------------------------------------|
B|---------------------------------------------------------------------------|
G|---------------------------------------------------------------------------|
D|---------------------------------------------------------------------------|
A|---------------------------------------------------------------------------|
D|-7-9-11---7-9-11--7-7-7-7-7---7-9-11--7-9-11--7-7-7-7----------------------|

e|---------------------------------------------------------------------------|
B|---------------------------------------------------------------------------|
G|---------------------------------------------------------------------------|
D|-2-2-2---2-2-2--2-2-2-2-2---2-2-2---2-2-2--2-2-2-2-------------------------|
A|-2-2-2---2-2-2--2-2-2-2-2---2-2-2---2-2-2--2-2-2-2-------------------------|
D|-2-2-2---2-2-2--2-2-2-2-2---2-2-2---2-2-2--2-2-2-2-------------------------|

Guitar 2
e|---------------------------------------------------------------------------|
B|---------------------------------------------------------------------------|
G|-14-14-14---13-13-13-------------------14-14-14---13-13-13-----------------|
D|-14-14-14---14-14-14--14-14-14-14-14---14-14-14---14-14-14--14-14-14-14-14-|
A|-12-12-12---12-12-12--12-12-12-12-12---12-12-12---12-12-12--12-12-12-12-12-|
D|---------------------------------------------------------------------------|

e|---------------------------------------------------------------------------|
B|---------------------------------------------------------------------------|
G|-9-9-9---8-8-8--------------9-9-9---8-8-8----------------------------------|
D|-9-9-9---9-9-9--9-9-9-9-9---9-9-9---9-9-9--9-9-9-9-------------------------|
A|-7-7-7---7-7-7--7-7-7-7-7---7-7-7---7-7-7--7-7-7-7-------------------------|
D|---------------------------------------------------------------------------|

Chorus

e|---------------------------------------------------------------------------|
B|---------------------------------------------------------------------------|
G|-------------------------------8-8-8-8-8-8-8-8-8-8-8-8-8-8-----------------|
D|-7-7-7-7-7-7-7-7-7-7-7-7-7-7---9-9-9-9-9-9-9-9-9-9-9-9-9-9-----------------|
A|-7-7-7-7-7-7-7-7-7-7-7-7-7-7---7-7-7-7-7-7-7-7-7-7-7-7-7-7-----------------|
D|-7-7-7-7-7-7-7-7-7-7-7-7-7-7---7-7-7-7-7-7-7-7-7-7-7-7-7-7-----------------|


That's all i've got so far, comment on this if you have any improvements or additions :)


************************************

| /   slide up
| \   slide down
| h   hammer-on
| p   pull-off
| ~   vibrato
| +   harmonic
| x   Mute note
| b   Bend
| pb  Pre-bend
| br  Bend release
| pbr Pre-bend release
| brb Bend release bend

************************************
Tap to rate this tab
 
# A B C D E F G H I J K L M N O P Q R S T U V W X Y Z