Song name
# A B C D E F G H I J K L M N O P Q R S T U V W X Y Z

Twin Atlantic - Lightspeed Acoustic tab

----------------------------------------------------------------------------
		    LIGHTSPEED ACOUSTIC - Twin Atlantic
----------------------------------------------------------------------------
Tabbed by: MurrayAberdeen
Email: murrayyy@hotmail.co.uk

Tuning: Drop D

This is the acoustic version of this song, as played live at the Gibson Studios, which 
be found here:
http://www.youtube.com/watch?v=pLOxdahFn70
From what i can hear, it also fits in with the acoustic version on the Lightspeed 
just with different rhythms, which i will leave to work out yourself:)

Verse 1:
  "step back into the river, float away, realise i want to raise the day"
e|-0-------------------------0--------------------------------------------|
B|-0-------------------------0--------------------------------------------|
G|-6-------------------------6-----------------------------7----------7---|
D|-7-------------------------7-----------------------------7----------7---|
A|-0-------------------------0-----------------------------9----------0---|
D|---------------------------------------------------------0----------0---|

"want to raise the day.   and call them out into the streets, face the wall"
e|------------------------0-------------------------------0---------------|
B|------------------------0-------------------------------0---------------|
G|--------7---------7-----6-------------------------------6---------------|
D|--------7---------7-----7-------------------------------7---------------|
A|--------9---------0-----0-------------------------------0---------------|
D|--------0---------0-----------------------------------------------------|

"this side i want to run away, want to run away"
e|------------------------------------------------|
B|------------------------------------------------|
G|-------------------7-----7------------7----7----|
D|-------------------7-----7------------7----7----|
A|-------------------9-----0------------9----0----|
D|-------------------0-----0------------0----0----|

Pre-Chorus:
   "my hands are only extensions.     we walk, we keep each other away".
e|-------------------------------------------------------------------------|
B|-------------------------------------------------------------------------|
G|-7---7--------------11---------7-4-----7--------7---------------11---7-4-|
D|-5---7--------------9----------5-2-----5--------7---------------9----5-2-|
A|-5---0--------------9----------5-2-----5--------0---------------9----5-2-|
D|-5---0--------------9----------5-2-----5--------0---------------9----5-2-|

Chorus:
      "we're lightspeed, lightspeed.    we're lightspeed, lightspeed".
e|-2----------------------------------2------------------------------------|
B|-3--------------3-----------3-------3------------3------------3----------|
G|-2--------------2-----------2-------2------------2------------2----------|
D|-0--------------0-----------0-------0------------0------------0----------|
A|-0--------------4-----------0-------0------------4------------0----------|
D|-0--------------------------4-------0-------------------------4----------|

     "they're never gonna get us all,     they're never gonna set us free"
e|-------------------------------------------------------------------------|
B|-3-----------------------------------------------------------------------|
G|-0----------------------------------11----------------------9-------4----|
D|-0----------------------------------9-----------------------7-------2----|
A|-5----------------------------------9-----------------------7-------2----|
D|-5----------------------------------9-----------------------7-------2----|


     "we're lightspeed, lightspeed.    we're lightspeed, lightspeed".
e|-2----------------------------------2------------------------------------|
B|-3--------------3-----------3-------3------------3------------3----------|
G|-2--------------2-----------2-------2------------2------------2----------|
D|-0--------------0-----------0-------0------------0------------0----------|
A|-0--------------4-----------0-------0------------4------------0----------|
D|-0--------------------------4-------0-------------------------4----------|

    "they're never gonna get us all,     they're never gonna set us free"
e|-------------------------------------------------------------------------|
B|-3-----------------------------------------------------------------------|
G|-0----------------------------------11----------------------9------------|
D|-0----------------------------------9-----------------------7------------|
A|-5----------------------------------9-----------------------7------------|
D|-5----------------------------------9-----------------------7------------|

The Verse, Pre-Chorus and Chorus are then repeated before you move onto the interlude 
which begins with these chords and no vocals:

e|------3----------2-----|
B|------3----------3-----|
G|-2----2--4--2----2--4--|
D|-0----0--2--0----0--2--|
A|-4----0--2--4----0--2--|
D|-4----0--2--4----0--2--|

Then the vocals come in:
     "we move, we move at night, along together, together we might"
e|-------------------------------2--------------------------------|
B|-------------------------------3--------------------------------|
G|-7-----------------------------2-----------------4--------------|
D|-5-----------------------------0-----------------2--------------|
A|-5-----------------------------0-----------------2--------------|
D|-5-----------------------------0-----------------2--------------|

           "just move as fast as light
e|-------------------------------2--------------------------------|
B|-------------------------------3--------------------------------|
G|-7-----------------------------2-----------------4--------------|
D|-5-----------------------------0-----------------2--------------|
A|-5-----------------------------0-----------------2--------------|
D|-5-----------------------------0-----------------2--------------|

The Chorus us then repeated for a last time, and end on:

e|-2----|
B|-3----|
G|-2----|
D|-0----|
A|-0----|
D|-0----|

And that is it:)
Any corrections, enquiries etc send me a message or an email.
Tap to rate this tab
# A B C D E F G H I J K L M N O P Q R S T U V W X Y Z