Twin Atlantic - What Is Light Where Is Laughter tab

Where Is Light? Where Is Laughter?
By Twin Atlantic
This is a tab for the lead guitar - melody lines
As no one has tabbed the lead guitar parts
Tabbed By Harry Derges

Standard Tuning

Main Melody
|-----------------------|      |---------------------|  
|--17-17p15-14----------|      |--17-17p15-14----14--|
|--------------14-14----| X2   |--------------14-----| X2
|-----------------------|      |---------------------|
|-----------------------|      |---------------------|
|-----------------------|      |---------------------|

Next Melody
|--------------------------------------|      
|--14--14--14--14--14--14----17-15-14--|      
|----14--14--14--14--14--14--14-14-14--|  
|--------------------------------------|  X AS MANY TIMES (IM NOT SURE)
|--------------------------------------|
|--------------------------------------|     

Final Melody
|---------9h10h12------|      
|---10h12--------------|      
|----------------------|  
|----------------------|  X AS MANY TIMES (IM NOT SURE)
|----------------------|
|----------------------|

Thank You For using this tab
Tap to rate this tab
 
# A B C D E F G H I J K L M N O P Q R S T U V W X Y Z