Twin Atlantic - Crash Land tab

The other tabs were a bit wrong, this is what he plays in the video i saw sooo...
Listen to the song for timings, etc

Verse:

|-----0-------0-------------0-------------|
|-----3-------3------7------0-------------|
|-----2-------0------0------5-------------|
|-----0-------0------0------7-------------|
|---------------------------7-------------|
|-------------3------7------5-------------|


Pre Chorus:

|-----0--------------0------0-------------|
|-----3-------7------0------3-------------|
|-----2-------0------5------0-------------|
|-----0-------0------7------0-------------|
|--------------------7--------------------|
|-------------7------5------3-------------|


Chorus:

|-----0-------0-------------0-------------|
|-----3-------3------7------0-------------|
|-----2-------0------0------5-------------|
|-----0-------0------0------7-------------|
|---------------------------7-------------|
|-------------3------7------5-------------|


Breakdown:

|-----0--------------0------0-------------|
|-----3-------7------0------3-------------|
|-----2-------0------5------0-------------|
|-----0-------0------7------0-------------|
|--------------------7--------------------|
|-------------7------5------3-------------|
Tap to rate this tab
 
# A B C D E F G H I J K L M N O P Q R S T U V W X Y Z