Song name
# A B C D E F G H I J K L M N O P Q R S T U V W X Y Z

Twin Atlantic - Make A Beast Of Myself tab

Tuning: Drop D

Intro

e|-----------------|
B|-----------------|
G|-4-4-4-4-4-4-----|
D|-4-4-4-4-4-4-----| 
A|-2-2-2-2-2-2-----|
D|-----------------|

e|----------------------------------|
B|----------------------------------|
G|---------3-3---4---4-4-4-4-4-3-3--|
D|-4---4-443-3---4---4-4-4-4-4-3-3--| 
A|-4---4-441-1.--2---2-2-2-2-2-1-1--|
D|-4---4-44-------------------------|

e|----------------------------------|
B|----------------------------------|
G|---------3-3---4-4-4-4-4-6-6-6-6--|
D|-4---4-443-3---4-4-4-4-4-6-6-6-6--| 
A|-4---4-441-1.--2-2-2-2-2-4-4-4-4--|
D|-4---4-44-------------------------|

e|----------------------------------|
B|----------------------------------|
G|----------------------------------|
D|-4---4-448-8---9---9-9-9-9-9------| 
A|-4---4-448-8---9---9-9-9-9-9------|
D|-4---4-448-8.--9---9-9-9-9-9\-----|

e|----------------------------------|
B|----------------------------------|
G|---------3-3---4------------------|
D|-4---4-443-3---4------------------| 
A|-4---4-441-1.--2------------------|
D|-4---4-44-------------------------|

Verse (havnt work this out yet)

Pre-chorus (not to sure about this bit)


e|----------------------------------|
B|----------------------------------|
G|-4--6----------4---6--------------|
D|-4--6----4---8-4---6-----4-4-4----| 
A|-2--4----4---8-2~--4~----4-4-4----|
D|---------4---8~----------4-4-4~---|


Chorus 

e|----------------------------------|
B|----------------------------------|
G|---------3-3---4---4-4-4-4-4-3-3--|
D|-4---4-443-3---4---4-4-4-4-4-3-3--| 
A|-4---4-441-1.--2---2-2-2-2-2-1-1--|
D|-4---4-44-------------------------|

e|----------------------------------|
B|----------------------------------|
G|---------3-3---4-4-4-4-4-6-6-6-6--|
D|-4---4-443-3---4-4-4-4-4-6-6-6-6--| 
A|-4---4-441-1.--2-2-2-2-2-4-4-4-4--|
D|-4---4-44-------------------------|

e|----------------------------------|
B|----------------------------------|
G|----------------------------------|
D|-4---4-448-8---9---9-9-9-9-9------| 
A|-4---4-448-8---9---9-9-9-9-9------|
D|-4---4-448-8.--9---9-9-9-9-9\-----|

e|----------------------------------|
B|----------------------------------|
G|---------3-3---4---4-4-4-4-4------|
D|-4---4-443-3---4---4-4-4-4-4------| 
A|-4---4-441-1.--2---2-2-2-2-2------|
D|-4---4-44-------------------------|

Verse 2


Pre-chorus 

e|----------------------------------|
B|----------------------------------|
G|-4--6----------4---6--------------|
D|-4--6----4---8-4---6-----4-4-4----| 
A|-2--4----4---8-2~--4~----4-4-4----|
D|---------4---8~----------4-4-4~---|


Chorus 1:47

e|----------------------------------|
B|----------------------------------|
G|---------3-3---4---4-4-4-4-4-3-3--|
D|-4---4-443-3---4---4-4-4-4-4-3-3--| 
A|-4---4-441-1.--2---2-2-2-2-2-1-1--|
D|-4---4-44-------------------------|

e|----------------------------------|
B|----------------------------------|
G|---------3-3---4-4-4-4-4-6-6-6-6--|
D|-4---4-443-3---4-4-4-4-4-6-6-6-6--| 
A|-4---4-441-1.--2-2-2-2-2-4-4-4-4--|
D|-4---4-44-------------------------|

e|----------------------------------|
B|----------------------------------|
G|----------------------------------|
D|-4---4-448-8---9---9-9-9-9-9------| 
A|-4---4-448-8---9---9-9-9-9-9------|
D|-4---4-448-8.--9---9-9-9-9-9\-----|

e|----------------------------------|
B|----------------------------------|
G|---------3-3---4---4-4-4-4-4------|
D|-4---4-443-3---4---4-4-4-4-4------| 
A|-4---4-441-1.--2---2-2-2-2-2------|
D|-4---4-44-------------------------|

Guitar Solo 

e|----------------------------------|
B|----------------------------------|
G|----------------------------------|
D|-1---1---4-4-4-9-9-9-9-9-9-9-8----| 
A|-1---1---4-4-4-9-9-9-9-9-9-9-8----|
D|-1---1---4-4-4-9-9-9-9-9-9-9-8\---|

e|----------------------------------|
B|----------------------------------|
G|----------------------------------|
D|-4-4-4-4-4-4-4-8-8-8-8-8-8-8-8----| 
A|-4-4-4-4-4-4-4-8-8-8-8-8-8-8-8----|
D|-4-4-4-4-4-4-4-8-8-8-8-8-8-8-8\---|

e|----------------------------------|
B|----------------------------------|
G|----------------------------------|
D|-1---1---4-4-4-9-9-9-9-9-9-9-8----| 
A|-1---1---4-4-4-9-9-9-9-9-9-9-8----|
D|-1---1---4-4-4-9-9-9-9-9-9-9-8\---|

e|----------------------------------|
B|----------------------------------|
G|----------------------------------|
D|-4-4-4-4-4-4-4-8-8-8-8-8-8-8-8----| 
A|-4-4-4-4-4-4-4-8-8-8-8-8-8-8-8----|
D|-4-4-4-4-4-4-4-8-8-8-8-8-8-8-8----|

solo guitar and bass fill

Pre-chorus 

e|----------------------------------|
B|----------------------------------|
G|-4--6----------4---6--------------|
D|-4--6----4---8-4---6-----4-4-4----| 
A|-2--4----4---8-2~--4~----4-4-4----|
D|---------4---8~----------4-4-4~---|


Chorus 

e|----------------------------------|
B|----------------------------------|
G|---------3-3---4---4-4-4-4-4-3----|
D|-4---4-443-3---4---4-4-4-4-4-3----| 
A|-4---4-441-1.--2---2-2-2-2-2-1.---|
D|-4---4-44-------------------------|

e|----------------------------------|
B|----------------------------------|
G|---------3-3---4-4-4-4-4-6-6-6-6--|
D|-4---4-443-3---4-4-4-4-4-6-6-6-6--| 
A|-4---4-441-1.--2-2-2-2-2-4-4-4-4--|
D|-4---4-44-------------------------|

e|----------------------------------|
B|----------------------------------|
G|----------------------------------|
D|-4---4-448-8.--9---9-9-9-9-9-8----| 
A|-4---4-448-8.--9---9-9-9-9-9-8----|
D|-4---4-448-8.--9---9-9-9-9-9-8.---|

e|----------------------------------|
B|----------------------------------|
G|---------3-3---4------------------|
D|-4---4-443-3---4------------------| 
A|-4---4-441-1.--2------------------|
D|-4---4-44-------------------------|
Tap to rate this tab
# A B C D E F G H I J K L M N O P Q R S T U V W X Y Z