Song name
# A B C D E F G H I J K L M N O P Q R S T U V W X Y Z

Twin Atlantic - Ghost Of Eddie tab

Drop D tuning
intro/main riff
|-----------------------||---------------------|  
|-----------------------||---------------------|
|-12-12-12-12-12/14-----||-12/11-11-11-11/7-7-7| 
|-----------------------||---------------------|
|-10-10-10-10-12/12-----||-10/9--9--9--9/-5-5-5|
|-----------------------||---------------------|

|-----------------------||---------------------|  
|-----------------------||---------------------| 
|-12-12-12-12-12/14-----||-12/11-11------------| after this strum behind the
|-----------------------||---------------------| nut twice or harmonic
|-10-10-10-10-12/12-----||-10/9--9-------------|
|-----------------------||---------------------|

|-----------------------||---------------------|  
|-----------------------||---------------------|
|-12-12-12-12-12/14-----||-12/11-11-11-11/7-7-7| 
|-----------------------||---------------------|
|-10-10-10-10-12/12-----||-10/9--9--9--9/-5-5-5|
|-----------------------||---------------------|
verse (palm mute)
|-----------------------||---------------------|  
|-----------------------||---------------------|
|-----------------------||---------------------| 
|-----------------------||---------------------| x4
|-10-10-10-13-13-13-13--||-4-4-4-7-7-7-7-------|
|-10-10-10-13-13-13-13--||-4-4-4-7-7-7-7-------|

Repeat main riff and verse

pre-chorus
|-----------------------||---------------------|  
|-----------------------||---------------------|
|-----------------------||---------------------| 
|-----------------------||---------------------|
|-5-----9-----7---------||-5-----0-----7-------|
|-5(x8)-9(x8)-7(x16)----||-5(x8)-0(x8)-7(x16)--|

chorus (I'm not so sure here)
|-----------------------||-------------------------|  
|-----------------------||-------------------------|
|-----------------------||-------------------------| 
|-----------------------||-------------------------|
|-0-----7-----5---------||-0-----9-----7-----0-----|
|-0(x8)-7(x8)-5(x16)----||-0(x8)-9(x2)-7(x2)-0(x8)-|

"EVERYBODY SCREAMED"

|------------------------|
|------------------------|
|------------------------| x2
|------------------------|
|-12b-0-3-4-0-12b-0-0-3-0|
|-12b-0-3-4-0-12b-0-0-3-0|

|-------|
|-------|
|-------|
|-------|
|-12----|
|-12(x8)|
repeat verse, main riff, chorus "everybody screamed"
first tab so I apologize if I wasn't accurate
Tap to rate this tab
 
# A B C D E F G H I J K L M N O P Q R S T U V W X Y Z