Song name
# A B C D E F G H I J K L M N O P Q R S T U V W X Y Z

Twin Atlantic - Make A Beast Of Myself tab

-------------------------------------------------------------------------------
                   Make A Beast Of Myself – Twin Atlantic

Tuning:DADGBe

Intro

Guitar 1

e|-222222xx------------------------------------------------------------------|
B|-222222xx------------------------------------------------------------------|
G|-444444xx------------------------------------------------------------------|
D|-444444xx------------------------------------------------------------------|
A|-222222xx------------------------------------------------------------------|
D|---------------------------------------------------------------------------|

e|---------------------------------------------------------------------------|
B|---------------------------------------------------------------------------|
G|-----333-4-4444444-----333-4-4444666-----333-4-444444xx-----333-4----------|
D|-4444333-4-4444444-4444333-4-4444666-4444333-4-444444xx-4444333-4----------|
A|-4444111-2-2222222-4444111-2-2222444-4444111-2-222222xx-4444111-2----------|
D|-4444--------------4444--------------4444---------------4444---------------|

Guitar 2 (follows the guitar 1 pattern but strum twice as fast basically – listen 
to the song to work out the rhythm)

e|---------------------------------------------------------------------------|
B|---------------------------------------------------------------------------|
G|-11-10-11----------11-10-11-13-------11-10-11-x---------11-10-11-----------|
D|-x--x--x-----------x--x--x--x--------x--x--x--x---------x--x--x------------|
A|-9--8--9-----------9--8--9--11-------9--8--9--x---------9--8--9------------|
D|---------------------------------------------------------------------------|

Verse

Repeat this 
e|---------------------------------------------------------------------------|
B|---------------------------------------------------------------------------|
G|---------------------------------------------------------------------------|
D|--3-4-3--------------------------------------------------------------------|
A|-4-------------------------------------------------------------------------|
D|4--------------------------------------------------------------------------|

And on the last time before the prechorus play this
e|---------------------------------------------------------------------------|
B|---------------------------------------------------------------------------|
G|---3-----------------------------------------------------------------------|
D|--3-4----------------------------------------------------------------------|
A|-4-------------------------------------------------------------------------|
D|4--------------------------------------------------------------------------|


Prechorus – fairly quiet in the mix so listen for the rhythm

You know, you know, it’s the end…
e|---------------------------------------------------------------------------|
B|--------14------14---------------------------------------------------------|
G|---15-------15-------------------------------------------------------------|
D|-16--16---16--16-----------------------------------------------------------|
A|---------------------------------------------------------------------------|
D|---------------------------------------------------------------------------|

Chorus – same as intro for both guitars

Bridge 

Cause it’s harder than we first…

Guitar 1 (play x2)

e|---------------------------------------------------------------------------|
B|---------------------------------------------------------------------------|
G|-----------44444444----------33333333--------------------------------------|
D|-1111-4444-44444444-44444444-33333333--------------------------------------|
A|-1111-4444-22222222-44444444-11111111--------------------------------------|
D|-1111-4444----------44444444-----------------------------------------------|

Guitar 2 (play x2)

e|---------------------------------------------------------------------------|
B|-14---------14-------------------------------------------------------------|
G|------------------------15--13---------------------------------------------|
D|---16-15-16---16-15-16---------16-15---------------------------------------|
A|---------------------------------------------------------------------------|
D|---------------------------------------------------------------------------|

Bit after bridge

e|-----------------2---------------------------------------------------------|
B|---------------2---2-------------------------------------------------------|
G|------2------------------------------------3-------------------------------|
D|----4--------4----------------4----------4---4-----------------------------|
A|--4-----4--4--------------4-----4------4-----------------------------------|
D|2---------------------3h4---4------3h4-------------------------------------|

This isn’t perfect but it includes a lot of parts that other tabs on here don’t so there ya go  
Tap to rate this tab
 
# A B C D E F G H I J K L M N O P Q R S T U V W X Y Z