Song name
# A B C D E F G H I J K L M N O P Q R S T U V W X Y Z

Twin Atlantic - Make A Beast Of Myself Acoustic tab

Tabbed by JaaaayDeeee email:jdgilbert@ntlworld.com
Tuning Drop D
I'll just show the chords/notes and the order they're played and you can work out the 
strumming from the video

http://www.youtube.com/watch?v=WF6fBT-64aE&feature=related

e|-----| Strum chord x7
b|-8---|
g|-9---|
D|-10--|
A|-----|
D|-10--|

Intro / chorus

e|----------|
b|-3-7-8--7-|
g|-4-7-9--7-|
D|-5-9-10-9-|
A|----------|
D|-5-9-10-9-|

e|-----------|
b|-3-7-8--10-|
g|-4-7-9--11-|
D|-5-9-10-12-|
A|-----------|
D|-5-9-10-12-|

e|----------|
b|-3-7-8--7-|
g|-4-7-9--7-|
D|-5-9-10-9-|
A|----------|
D|-5-9-10-9-|

e|--------|
b|-3-7-8--|
g|-4-7-9--|
D|-5-9-10-|
A|--------|
D|-5-9-10-|

Verse
e|-----------|
b|-----------| x16
g|-------0---|
D|-----4---4-|
A|---5-------|
D|-5---------|

Pre-Chorus

e|-3-5-------3-5---|
b|-3-5-------3-5---|
g|-----------------|
D|-2-4--0-0--2-4-0-|
A|-3-5--2-5--3-5-2-|
D|------2-5------2-|

Chorus

Verse again

Pre-Chorus again

Chorus again...

Bridge

e|--------------| x2
b|---3-8--10-3-7|
g|---4-9--11-4-7|
D|-0------------|
A|-2-5-10-12-5-9|
D|-2-5-10-12-5-9|

Interlude

e|--------0-0| x4 2nd time do a wee harmonic on the 5th
b|--8--10-0-0|
g|--9--11-0-0|
D|--------0-0|
A|--10-12-2-5|
D|--10-12-2-5|

Chorus

Merci beacoup!
Tap to rate this tab
 
# A B C D E F G H I J K L M N O P Q R S T U V W X Y Z