Song name
# A B C D E F G H I J K L M N O P Q R S T U V W X Y Z

Twin Atlantic - Crash Land tab

This sounds better in acoustic but I noticed that no one has put up the solo yet so this 
is how I think it goes:



|--2----------------|
|-----3--2----------|
|-----------2-------|    x4
|--------------4--4-|
|-------------------|
|-------------------|


I hope this works for you :D


I also arranged the rest of the song slightly differently like this:

|-----2----------3----------2----------0---------------------------------|
|-----3--3-------0--0-------0--0-------3--3------------------------------|
|--2-----2----0-----0----4-----4----3-----3------------------------------| X2
|--0----------0----------0----------3------------------------------------|
|------------------------------------------------------------------------|
|------------------------------------------------------------------------|
crash land
still i cant find you
and just as things were looking up
we're stuck



for the chorus just add the chords D G Bm A between the broken down chords :D
Tap to rate this tab
 
# A B C D E F G H I J K L M N O P Q R S T U V W X Y Z