Song name
# A B C D E F G H I J K L M N O P Q R S T U V W X Y Z

Twin Atlantic - Make A Beast Of Myself Acoustic tab

Twin Atlantic - Make A Beast Of Myself (Acoustic)

Can't really tab out the strumming but you should be able to pick it up quite 
easily from various videos of the acoustic version.

Intro
e|--8--|
B|--8--|
G|--0--|
D|--0--|
A|--10-|
D|--10-|

e|--3----7----8----7--| e|--3----7----8----10--|
B|--3----7----8----7--| B|--3----7----8----10--|
G|--0----0----0----0--| G|--0----0----0----0---|
D|--0----0----0----0--| D|--0----0----0----0---|
A|--5----9----10---9--| A|--5----9----10---12--|
D|--5----9----10---9--| D|--5----9----10---12--|

e|--3----7----8----7--| e|--3----7----8---|
B|--3----7----8----7--| B|--3----7----8---|
G|--0----0----0----0--| G|--0----0----0---|
D|--0----0----0----0--| D|--0----0----0---|
A|--5----9----10---9--| A|--5----9----10--|
D|--5----9----10---9--| D|--5----9----10--|

Verse 1
e|-------------|        e|-------------|
B|-------------|        B|--------0----|
G|--------0----| [x15]  G|-------------|
D|------4---4--|        D|------4---4--| [Last time]
A|----5--------|        A|----5--------|
D|--5----------|        D|--5----------|

Pre-Chorus
e|--3----5------------| e|--3----5-------|
B|--3----5------------| B|--3----5-------|
G|--0----0------------| G|--0----0-------|
D|--2----4----2----5--| D|--2----4----0--|
A|--3----5----2----5--| A|--3----5----2--|
D|------------2----5--| D|------------2--|

Chorus (Intro)
e|--3----7----8----7--| e|--3----7----8----10--|
B|--3----7----8----7--| B|--3----7----8----10--|
G|--0----0----0----0--| G|--0----0----0----0---|
D|--0----0----0----0--| D|--0----0----0----0---|
A|--5----9----10---9--| A|--5----9----10---12--|
D|--5----9----10---9--| D|--5----9----10---12--|

e|--3----7----8----7--| e|--3----7----8---|
B|--3----7----8----7--| B|--3----7----8---|
G|--0----0----0----0--| G|--0----0----0---|
D|--0----0----0----0--| D|--0----0----0---|
A|--5----9----10---9--| A|--5----9----10--|
D|--5----9----10---9--| D|--5----9----10--|

Verse 2
e|-------------|        e|-----|
B|-------------|        B|-----|
G|--------0----| [x7]   G|--0--|
D|------4---4--|        D|--4--|
A|----5--------|        A|--5--|
D|--5----------|        D|--5--|

e|-------------|
B|-------------|
G|--------0----| [x8]
D|------4---4--|
A|----5--------|
D|--5----------|

Pre-Chorus
e|--3----5------------| e|--3----5-------|
B|--3----5------------| B|--3----5-------|
G|--0----0------------| G|--0----0-------|
D|--2----4----2----5--| D|--2----4----0--|
A|--3----5----2----5--| A|--3----5----2--|
D|------------2----5--| D|------------2--|

Chorus (Intro)
e|--3----7----8----7--| e|--3----7----8----10--|
B|--3----7----8----7--| B|--3----7----8----10--|
G|--0----0----0----0--| G|--0----0----0----0---|
D|--0----0----0----0--| D|--0----0----0----0---|
A|--5----9----10---9--| A|--5----9----10---12--|
D|--5----9----10---9--| D|--5----9----10---12--|

e|--3----7----8----7--| e|--3----7----8---|
B|--3----7----8----7--| B|--3----7----8---|
G|--0----0----0----0--| G|--0----0----0---|
D|--0----0----0----0--| D|--0----0----0---|
A|--5----9----10---9--| A|--5----9----10--|
D|--5----9----10---9--| D|--5----9----10--|

e|-------3----8----10----3----7--|
B|-------3----8----10----3----7--|
G|-------0----0----0-----0----0--| [x2]
D|--0----0----0----0-----0----0--|
A|--3----5----10---12----5----9--|
D|--3----5----10---12----5----9--|

Break
e|--3----5------------| e|--3----5--------------x--0-----|
B|--3----5------------| B|--3----5--------------x--0-----|
G|--0----0------------| G|--0----0--------------x--0--0--|
D|--2----4----2----5--| D|--2----4----2----5----x--0--4--|
A|--3----5----2----5--| A|--3----5----2----5----x-----5--|
D|------------2----5--| D|------------2----5----x-----5--|

Pre-Chorus
e|--3----5------------| e|--3----5-------|
B|--3----5------------| B|--3----5-------|
G|--0----0------------| G|--0----0-------|
D|--2----4----2----5--| D|--2----4----0--|
A|--3----5----2----5--| A|--3----5----2--|
D|------------2----5--| D|------------2--|

Chorus (Intro)
e|--3----7----8----7--| e|--3----7----8----10--|
B|--3----7----8----7--| B|--3----7----8----10--|
G|--0----0----0----0--| G|--0----0----0----0---|
D|--0----0----0----0--| D|--0----0----0----0---|
A|--5----9----10---9--| A|--5----9----10---12--|
D|--5----9----10---9--| D|--5----9----10---12--|

e|--3----7----8----7--| e|--3----7----8---|
B|--3----7----8----7--| B|--3----7----8---|
G|--0----0----0----0--| G|--0----0----0---|
D|--0----0----0----0--| D|--0----0----0---|
A|--5----9----10---9--| A|--5----9----10--|
D|--5----9----10---9--| D|--5----9----10--|

e|--3--|
B|--3--|
G|--0--|
D|--0--|
A|--5--|
D|--5--|

And that's it. Enjoy :)
Tap to rate this tab
# A B C D E F G H I J K L M N O P Q R S T U V W X Y Z