Song name
# A B C D E F G H I J K L M N O P Q R S T U V W X Y Z

Twin Atlantic - Make A Beast Of Myself tab

----------------------------------------------------------------------------
This song is played in drop D tuning. Have fun with this song. If there are any 
questions please notify me and I will see what I can do.


-----INTRO------

E|------------------------------|
B|-----8--8--8--8--8--8---------|
G|-----0--0--0--0--0--0---------|
D|-----10-10-10-10-10-10--------|
A|-----10-10-10-10-10-10--------|
D|-----10-10-10-10-10-10--------|

-----MAIN RIFF----

E|----------------------------------------------------------------|
B|-----3----3------7-7---7------8----8--8---8------8--8------7-7--|
G|-----0----0------0-0---0------0----0--0---0------0--0------0-0--|
D|-----5----5------9-9---9------10---10-10--10-----10-10-----9-9--|
A|-----5----5------9-9---9------10---10-10--10-----10-10-----9-9--|
D|-----5----5------9-9---9------10---10-10--10-----10-10-----9-9--|


E|-------------------------------------------------------------------|
B|-----3----3------7-7---7------8----8--8---8------10-10-----10-10---|
G|-----0----0------0-0---0------0----0--0---0------0--0------0--0----|
D|-----5----5------9-9---9------10---10-10--10-----12-12-----12-12---|
A|-----5----5------9-9---9------10---10-10--10-----12-12-----12-12---|
D|-----5----5------9-9---9------10---10-10--10-----12-12-----12-12---|


E|------------------------------------------------------------------------|
B|-----3----3------7-7---7------8----8--8---8------8--8------7-7----------|
G|-----0----0------0-0---0------0----0--0---0------0--0------0-0----------|
D|-----5----5------9-9---9------10---10-10--10-----10-10-----9-9--*PAUSE*-|
A|-----5----5------9-9---9------10---10-10--10-----10-10-----9-9----------|
D|-----5----5------9-9---9------10---10-10--10-----10-10-----9-9----------|


E|-------------------------------------------------------------------|
B|-----3----3------7-7---7------8----8--8---8-----8--8--8--8--8---8--|
G|-----0----0------0-0---0------0----0--0---0-----0--0--0--0--0---0--|
D|-----5----5------9-9---9------10---10-10--10----10-10-10-10-10--10-|
A|-----5----5------9-9---9------10-----------------------------------|
D|-----5----5------9-9---9------10-----------------------------------|

-----VERSE 1-----

E|--------------------------------------------------------------------------|
B|-------------------------------------------------------------0------------|
G|-------------0---------------0---------------0----------------------------|
D|---------4-------4-------4-------4-------4-------4-------4-------4--------|
A|-------5---------------5---------------5---------------5------------------|
D|-----5---------------4---------------5---------------4-------------|-x4---|

-----PRE CHORUS-----

E|----0---0------0--0-0--0------0---0----0--0-0--0-----|
B|----3---3------5--5-5--5------0---0----3--3-3--3-----|
G|----0---0------0--0-0--0------0---0----0--0-0--0-----|
D|----2---2------4--4-4--4------2---2----5--5-5--5-----|
A|----3---3------5--5-5--5------2---2----5--5-5--5-----|
D|------------------------------2---2----5--5-5--5-----|

E|----0---0------0--0-0--0------0----0-0----0-0-----------|
B|----3---3------5--5-5--5------0----0-0----0-0-----------|
G|----0---0------0--0-0--0------0----0-0----0-0-----------|
D|----2---2------4--4-4--4------2----2-2----2-2-----------|
A|----3---3------5--5-5--5------2----2-2----2-2-----------|
D|------------------------------2----2-2----2-2-----------|

------ CHORUS (MAIN RIFF)--------

E|----------------------------------------------------------------|
B|-----3----3------7-7---7------8----8--8---8------8--8------7-7--|
G|-----0----0------0-0---0------0----0--0---0------0--0------0-0--|
D|-----5----5------9-9---9------10---10-10--10-----10-10-----9-9--|
A|-----5----5------9-9---9------10---10-10--10-----10-10-----9-9--|
D|-----5----5------9-9---9------10---10-10--10-----10-10-----9-9--|


E|-------------------------------------------------------------------|
B|-----3----3------7-7---7------8----8--8---8------10-10-----10-10---|
G|-----0----0------0-0---0------0----0--0---0------0--0------0--0----|
D|-----5----5------9-9---9------10---10-10--10-----12-12-----12-12---|
A|-----5----5------9-9---9------10---10-10--10-----12-12-----12-12---|
D|-----5----5------9-9---9------10---10-10--10-----12-12-----12-12---|


E|------------------------------------------------------------------------|
B|-----3----3------7-7---7------8----8--8---8------8--8------7-7----------|
G|-----0----0------0-0---0------0----0--0---0------0--0------0-0----------|
D|-----5----5------9-9---9------10---10-10--10-----10-10-----9-9--*PAUSE*-|
A|-----5----5------9-9---9------10---10-10--10-----10-10-----9-9----------|
D|-----5----5------9-9---9------10---10-10--10-----10-10-----9-9----------|


E|-------------------------------------------------------------------|
B|-----3----3------7-7---7------8----8--8---8-----8--8--8--8--8---8--|
G|-----0----0------0-0---0------0----0--0---0-----0--0--0--0--0---0--|
D|-----5----5------9-9---9------10---10-10--10----10-10-10-10-10--10-|
A|-----5----5------9-9---9------10-----------------------------------|
D|-----5----5------9-9---9------10-----------------------------------|

------VERSE 2-------

E|-------------------------------------------------------------------------|
B|-----------------------------------------------------------0-------------|
G|-----------0---------------0---------------0-----------------------------|
D|-------4-------4-------4-------4-------4-------4-------4-------4---------|
A|-----5---------------5---------------5---------------5-------------------|
D|---5---------------4---------------5---------------4--------------| x4 -|

-----PRE CHORUS (AGAIN)-----

E|----0---0------0--0-0--0------0---0----0--0-0--0-----|
B|----3---3------5--5-5--5------0---0----3--3-3--3-----|
G|----0---0------0--0-0--0------0---0----0--0-0--0-----|
D|----2---2------4--4-4--4------2---2----5--5-5--5-----|
A|----3---3------5--5-5--5------2---2----5--5-5--5-----|
D|------------------------------2---2----5--5-5--5-----|

E|----0---0------0--0-0--0------0----0-0----0-0-----------|
B|----3---3------5--5-5--5------0----0-0----0-0-----------|
G|----0---0------0--0-0--0------0----0-0----0-0-----------|
D|----2---2------4--4-4--4------2----2-2----2-2-----------|
A|----3---3------5--5-5--5------2----2-2----2-2-----------|
D|------------------------------2----2-2----2-2-----------|


------ CHORUS AGAIN (MAIN RIFF)--------

E|----------------------------------------------------------------|
B|-----3----3------7-7---7------8----8--8---8------8--8------7-7--|
G|-----0----0------0-0---0------0----0--0---0------0--0------0-0--|
D|-----5----5------9-9---9------10---10-10--10-----10-10-----9-9--|
A|-----5----5------9-9---9------10---10-10--10-----10-10-----9-9--|
D|-----5----5------9-9---9------10---10-10--10-----10-10-----9-9--|


E|-------------------------------------------------------------------|
B|-----3----3------7-7---7------8----8--8---8------10-10-----10-10---|
G|-----0----0------0-0---0------0----0--0---0------0--0------0--0----|
D|-----5----5------9-9---9------10---10-10--10-----12-12-----12-12---|
A|-----5----5------9-9---9------10---10-10--10-----12-12-----12-12---|
D|-----5----5------9-9---9------10---10-10--10-----12-12-----12-12---|


E|------------------------------------------------------------------------|
B|-----3----3------7-7---7------8----8--8---8------8--8------7-7----------|
G|-----0----0------0-0---0------0----0--0---0------0--0------0-0----------|
D|-----5----5------9-9---9------10---10-10--10-----10-10-----9-9--*PAUSE*-|
A|-----5----5------9-9---9------10---10-10--10-----10-10-----9-9----------|
D|-----5----5------9-9---9------10---10-10--10-----10-10-----9-9----------|


E|-------------------------------------------------------------------|
B|-----3----3------7-7---7------8----8--8---8-----8--8--8--8--8---8--|
G|-----0----0------0-0---0------0----0--0---0-----0--0--0--0--0---0--|
D|-----5----5------9-9---9------10---10-10--10----10-10-10-10-10--10-|
A|-----5----5------9-9---9------10-----------------------------------|
D|-----5----5------9-9---9------10-----------------------------------|


----- MIDDLE 8 ------

E|-----0----0-------------------------------------------------------|
B|-----0----0------3-3---3------8----8--8---8----8--8----8--8-------|
G|-----0----0------0-0---0------0----0--0---0----0--0----0--0-------|
D|-----2----2------5-5---5------10---10-10--10---10-10---10-10------|
A|-----2----2------5-5---5------10---10-10--10---10-10---10-10------|
D|-----2----2------5-5---5------10---10-10--10---10-10---10-10------|

E|------------------------------------------------------------------|
B|-----3----3------3---3-3---3-------7----7----7--7-7---7-----------|
G|-----0----0------0---0-0---0-------0----0----0--0-0---0-----------|
D|-----5----5------5---5-5---5-------9----9----9--9-9---9-----------|
A|-----5----5------5---5-5---5-------9----9----9--9-9---9-----------|
D|-----5----5------5---5-5---5-------9----9----9--9-9---9-----------|

E|-----0----0-------------------------------------------------------|
B|-----0----0------3-3---3------8----8--8---8----8--8----8--8-------|
G|-----0----0------0-0---0------0----0--0---0----0--0----0--0-------|
D|-----2----2------5-5---5------10---10-10--10---10-10---10-10------|
A|-----2----2------5-5---5------10---10-10--10---10-10---10-10------|
D|-----2----2------5-5---5------10---10-10--10---10-10---10-10------|

E|------------------------------------------------------------------|
B|-----3----3------3---3-3---3-------7----7----7--7-7---7-----------|
G|-----0----0------0---0-0---0-------0----0----0--0-0---0-----------|
D|-----5----5------5---5-5---5-------9----9----9--9-9---9-----------|
A|-----5----5------5---5-5---5-------9----9----9--9-9---9-----------|
D|-----5----5------5---5-5---5-------9----9----9--9-9---9-----------|

---- CALM PART (PRE CHORUS) ----

E|----0---0------0--0-0--0------0---0----0--0-0--0-----|
B|----3---3------5--5-5--5------0---0----3--3-3--3-----|
G|----0---0------0--0-0--0------0---0----0--0-0--0-----|
D|----2---2------4--4-4--4------2---2----5--5-5--5-----|
A|----3---3------5--5-5--5------2---2----5--5-5--5-----|
D|------------------------------2---2----5--5-5--5-----|

E|----0---0------0--0-0--0------0----0-0----0-0-----------|
B|----3---3------5--5-5--5------0----0-0----0-0-----------|
G|----0---0------0--0-0--0------0----0-0----0-0-----------|
D|----2---2------4--4-4--4------2----2-2----2-2-----------|
A|----3---3------5--5-5--5------2----2-2----2-2-----------|
D|------------------------------2----2-2----2-2-----------|

----- FINAL CHORUS (SAME AS THE REST) -----

E|----------------------------------------------------------------|
B|-----3----3------7-7---7------8----8--8---8------8--8------7-7--|
G|-----0----0------0-0---0------0----0--0---0------0--0------0-0--|
D|-----5----5------9-9---9------10---10-10--10-----10-10-----9-9--|
A|-----5----5------9-9---9------10---10-10--10-----10-10-----9-9--|
D|-----5----5------9-9---9------10---10-10--10-----10-10-----9-9--|


E|-------------------------------------------------------------------|
B|-----3----3------7-7---7------8----8--8---8------10-10-----10-10---|
G|-----0----0------0-0---0------0----0--0---0------0--0------0--0----|
D|-----5----5------9-9---9------10---10-10--10-----12-12-----12-12---|
A|-----5----5------9-9---9------10---10-10--10-----12-12-----12-12---|
D|-----5----5------9-9---9------10---10-10--10-----12-12-----12-12---|


E|------------------------------------------------------------------------|
B|-----3----3------7-7---7------8----8--8---8------8--8------7-7----------|
G|-----0----0------0-0---0------0----0--0---0------0--0------0-0----------|
D|-----5----5------9-9---9------10---10-10--10-----10-10-----9-9--*PAUSE*-|
A|-----5----5------9-9---9------10---10-10--10-----10-10-----9-9----------|
D|-----5----5------9-9---9------10---10-10--10-----10-10-----9-9----------|


E|---------------------------------------------------------------|
B|-----3----3------7-7---7------8-------------------3------------|
G|-----0----0------0-0---0------0-------------------0------------|
D|-----5----5------9-9---9------10------------------5------------|
A|-----5----5------9-9---9------10------------------5------------|
D|-----5----5------9-9---9------10------------------5------------|


----------------------------------------------------------------------------

`Fantastic song, not too difficult to play. Very good for acoustic. Have fun with it and 
enjoy yourselfs!!!
Tap to rate this tab
# A B C D E F G H I J K L M N O P Q R S T U V W X Y Z