Twin Shadow - At My Heels tab

TWIN SHADOW
"At My Heels"
Standard Tuning
All done by ear so no complaints.


Verse
E|------------------------------|
B|--9--11--9--11--9--11--7--11--|
G|--9--11--9--11--9--11--8--11--|
D|--9--11--9--11--9--11--9--11--|
A|------------------------------|
E|------------------------------|


Chorus
E|--9--9--10--11--7--9--7--7--4--|
B|--9--9--10--11--7--7--7--5--5--|
G|--9--9--10--11--8--8--8--6--6--|
D|-------------------------------|
A|-------------------------------|
E|-------------------------------|
Tap to rate this tab
 
# A B C D E F G H I J K L M N O P Q R S T U V W X Y Z