Song name
# A B C D E F G H I J K L M N O P Q R S T U V W X Y Z

Twin Shadow - Tyrant Destroyed tab

TWIN SHADOW
"Tyrant Destroyed"
Guitar Tab
Standard Tuning

This was all done by ear so please excuse any inconsistencies.



INTRO
E|----------|
B|--11--13--|
G|--11--13--|
D|--8---10--|
A|----------|
E|----------|


VERSE
E|----------9---9--8--|
B|--11--13------------|
G|--11--13--10--6-----|
D|--8---10--11--8-----|
A|--------------------|
E|--------------------|


Part Leading To Chorus in Verse
E|----------------------------------------------------|
B|---------11---------13--14----------14------14--13--|
G|--10h11------12h13----------13----------13----------|
D|--------------------------------15------------------|
A|----------------------------------------------------|
E|----------------------------------------------------|


CHORUS
E|------|
B|--14--|
G|--13--|
D|------|
A|------|
Tap to rate this tab
 
# A B C D E F G H I J K L M N O P Q R S T U V W X Y Z