Song name
# A B C D E F G H I J K L M N O P Q R S T U V W X Y Z

Twinzero - In Sha Allah tab

In Sha Allah
TwinZero - http://www.twinzero.net/

tabbed by Gaz (freaky_bulb@hotmail.com)
Any comments, additions,corrections welcome, especially to the lyrics!

Tuning

D
A
G
D
A
D

This song is on the 27:00 album.My favorite song by this amazing band.
This is just a guide, be creative hwen playing it, add in fills and bits and you 
feel the need.
Its no fun just playing it as recorded all the time!


Intro: this riff is used through out the song,theres 2 bars of the original D chord.
 

     W                   E  E  E  H        E     E  E  E  E  S S E  E  E   
D||--0----------------|-----------------------|--------------4-5-4--------|
A||--5----------------|-----------3--------L--|-----------3---------5-----|
G||--2----------------|--------0--------------|--------0---------------2--|
D||--0----------------|-----2-----------------|-----1---------------------|
A||--0----------------|--3--------------------|--3------------------------|
D||--0----------------|-----------------------|---------------------------|
  

                                    ^ v v v  v  v                             
  E  E  E  H        E     Q    Q    S S S E  E  S    E  E  E  E  E  E  E  E   
-----------0--------L--|-------0----0-0-0-0--0--0-|--0--0--0--0--0--0--0--0--|
-----------0--------L--|-------0----0-0-0-0--0--0-|--0--0--0--0--0--0--0--0--|
-----------0--------L--|-------0----7-8-8-8--8--8-|--1--1--1--1--1--1--1--1--|
--------1--------------|------------0-0-0-0--0--0-|--0--0--0--0--0--0--0--0--|
-----1-----------------|--1---------5-6-6-6--6--6-|--0--0--0--0--0--0--0--0--|
--1--------------------|--1---------0-0-0-0--0--0-|--0--0--0--0--0--0--0--0--|




middle bit: comes in after 'but i cannot wash my conscience clean' repeated 3 times. 
the ending changes on the 3rd repeat
to D# to D chords alternately.


  E  E  E  E  E  E  E  E     E  E  E  E  E  E  E  E   
-----0--0--0--0--0--0--0--|-----0--0--0--0--0--0--0--|
-----0--0--0--0--0--0--0--|-----0--0--0--0--0--0--0--|
-----2--2--2--2--2--2--2--|-----3--3--3--3--3--3--3--|
--x--0--0--0--0--0--0--0--|--x--3--3--3--3--3--3--3--|
--x--0--0--0--0--0--0--0--|--x--1--1--1--1--1--1--1--|
--x--0--0--0--0--0--0--0--|--x-----------------------|


  E  E  E  E  E  E  E  E      
--------------------------|
--------------------------|
--------------------------|
--1--1--1--3--3--3--5--6--|
--1--1--1--3--3--3--5--6--|
--1--1--1--3--3--3--5--6--|


Outro: this is just a guide, there's a lot more strumming as you can hear on the track



  E  E  E  E  E  E  E  E  
--0--0--0--0--0--0--0--0--|--0--0--0--0--0---0--0--0--0--0--L--|
--0--0--0--0--0--0--0--0--|--0--0--0--0--0---0--0--0--0--0--L--|
--0--0--0--0--0--0--0--0--|--7--7--7--7--7--------11-12-11--L~-|
--7--7--7--7--7--7--7--7--|--0--0--0--0--0--11-12--------------|
--0--0--0--0--0--0--0--0--|--0--0--0--0--0---------------------|
--0--0--0--0--0--0--0--0--|--0--0--0--0--0------0--------0-----|





   E  E  E  E   E  E  E  E     E  E  E  E  E   S  S  S  S  S  S 
|--0--0--0--0---0--0--0--0--|--L--0--0--0--0---0--0--0--0--0--L--|
|--0--0--0--0---0--0--0--0--|--L--0--0--0--0---0--0--0--0--0--L--|
|---------------------------|--------7--7--7--------11-12-11--L~-|
|--5--5--4--4s--8--8--7--7--|--L--L--0--0--0--11-12--------------|
|--0--0--0--0---0--0--0--0--|--0--0--0--0--0---------------------|
|--0--0--0--0---0--0--0--0--|--0--0--0--0--0------0--------0-----|



   E  E  E  E   E  E   S S S S    E  E  E  E  E   S  S  S  S  S  S 
|--0--0--0--0---0--0---0---0-L-|--0--0--0--0--0---0--0--0--0--0--L--||
|--0--0--0--0---0--0---0---0-L-|--L--0--0--0--0---0--0--0--0--0--L--||
|--------------------------0-L-|--L--L--7--7--7--------11-12-11--L~-||
|--5--5--4--4s--8--8--10-8-7-7-|--0--0--0--0--0--11-12--------------||
|--0--0--0--0---0--0---0---0-L-|--0--0--0--0--0---------------------||
|--0--0--0--0---0--0---0---0-L-|--0--0--0--0--0------0--------0-----||



The lyrics are a bit tricky to pick out in placves, heres what ive got so far :

Please be quiet and let me speak
im asking you for the last time,
im asking you for more time.
?? ??? ??? ??? ??? ??? ??? ??? ??? ?
so drag these weary legs forward
we'll crush our enemies slowly
through the endless fields of ash and doom
i cleanse my skin in the river, but i cannot wash my conscience clean.


Burn the objects from the past and watch as the smoke meets? the sky
signalling, tempting?, embrace. change is washing over me in waves
deeper lines have now exampled? my ever more tired eyes
god has now lost it?, we'll(will) remain constantly in memory
Burn the objects from the past and watch as the smoke meets? the sky
signalling, tempting?, embrace. change is washing over me in waves
??? ??? ??? branches that lead to the past, burning the details connected to you
Expose the cracks and return to the sore(soil)
signal the end, tempting embrace,change. reach out with scarred hands grasping for the 
truth
Tap to rate this tab
 
# A B C D E F G H I J K L M N O P Q R S T U V W X Y Z