Song name
# A B C D E F G H I J K L M N O P Q R S T U V W X Y Z

Twista - Hope tab

Twista-Hope  tabbed by Mike M    

i hate detunin my guitar and thought it was time someone tabbed this accurately in standard tuning so i did.
 hope u like :)


This is played throughout the song (i find it easiest to hold a bar down 
at 4 then move to 6 and 7 as the song moves on)
 
e|------------------------------------------------------|
b|------------------------------------------------------|
G|-----------4------------6------------4----------------|
D|--------4------------4------------6-----6-----4-------|
A|----6-------------4------------6------------6---------|
E|-7------------6-------------4-------------------------|

e|------------------------------------------------------|
B|-----------4------------7-----------------------------|
G|---------4------------6----------4--------------------|
D|------4------------4-----------6----6------4----------|
A|----------------------------6---------6---------------|
E|--7-----------6----------4----------------------------|

e|------------------------------------------------------|
b|------------------------------------------------------|
G|-----------4------------6------------4----------------|
D|--------4------------4------------6-----6-----4-------|
A|----6-------------4------------6------------6---------|
E|-7------------6-------------4-------------------------|



e|------------------------------7--7h9p7-------------7--|
B|--------5-------7------7h9p7-------------7h9p7--8-----|
G|------4-------6---------------------------------------|
D|----6-------8------9----------------------------------|
A|--4-------6------7------------------------------------|
E|------------------------------------------------------|
Tap to rate this tab
 
# A B C D E F G H I J K L M N O P Q R S T U V W X Y Z