Song name
# A B C D E F G H I J K L M N O P Q R S T U V W X Y Z

Twista - So Sexy tab

So Sexy - Twista ft. Kels

Tabbed by: dan ungson
           ryke

Email: danericu@yahooo.com

Tuning: standard

e|---------------------6h7p6---7h8p7---8h9p8------|
B|-----7h8p7---8h9p8------------------------------|
G|------------------------------------------------|
D|------------------------------------------------|
A|------------------------------------------------|
E|------------------------------------------------|

e|--------------------------------|
B|-----8---7-----8s10-or-8h10-----|
G|--------------------------------|
D|--------------------------------|
A|--------------------------------|
E|--------------------------------|

e|---------------------6h7p6---7h8p7---8h9p8------|
B|-----7h8p7---8h9p8------------------------------|
G|------------------------------------------------|
D|------------------------------------------------|
A|------------------------------------------------|
E|------------------------------------------------|

e|------------------------------------|
B|-----8---7-----8s10-or-8h10---7-----|
G|------------------------------------|
D|------------------------------------|
A|------------------------------------|
E|------------------------------------|

repeated throughout the whole song

| s slide up
| \  slide down
| h  hammer-on
| p  pull-off
| ~  vibrato
| +  harmonic
| x  Mute note
===============================================================================
Tap to rate this tab
 
# A B C D E F G H I J K L M N O P Q R S T U V W X Y Z