Song name
# A B C D E F G H I J K L M N O P Q R S T U V W X Y Z

Twista - Overnight Celebrtiy tab

-------------------------------------------------------------------------------
	               OVERNIGHT CELEBRITY - Twista
-------------------------------------------------------------------------------
Tabbed by:Sound Mind
Email:kagenecros@hotmail.com

Tuning:Standard

This is normally played on a violin so it wont sound exactly the same. I do 
think I got it pretty close though.

e|----8-6--------------8-6----8---------8-6----------------------------------|
B|6-9------9-6-----6-9------9-------6-9------9-6-----8--9--8-6--6------------|
G|---------------------------------------------------------------------------|
D|---------------------------------------------------------------------------|
A|---------------------------------------------------------------------------|
E|---------------------------------------------------------------------------|

e|----8-6--------------8-6----8---------8-6----------------------------------|
B|6-9------9-6-----6-9------9-------6-9------9-6-----8--9--8-6--6------------|
G|---------------------------------------------------------------------------|
D|---------------------------------------------------------------------------|
A|---------------------------------------------------------------------------|
E|---------------------------------------------------------------------------|

This is a great song by Twista with an awesome violin melody.

| /  slide up
| \  slide down
| h  hammer-on
| p  pull-off
| ~  vibrato
| +  harmonic
| x  Mute note
===============================================================================
Tap to rate this tab
# A B C D E F G H I J K L M N O P Q R S T U V W X Y Z