Song name
# A B C D E F G H I J K L M N O P Q R S T U V W X Y Z

Twisted Black - Alone With Misery tab

Help us improve GuitareTab! Take a short survey!
TWISTED BLACK
Written By: Michael "Rythm G./Vocals"

Alone With Misery


e-------------------------------------------------|--0-------------------|
B-------------------------------------------------|--0-------------------|
G---2---------------------------------------------|--0-------------------|
D---2---------0-----------------0------------0----|--2-------------------|
A---2------4----4-------------5---5--------4---4--|--2-------------------|
E---0----5--------5----5-5--3-------3----2-------2|--0-------------------|


e---12------------12-------15---12------------12-------15----------------|
B------13-12-15------13-12---------13-12-15------13-12-------------------|
G------------------------------------------------------------------------|
D--0-------------0-------------0-------------0---------------------------|
A------------------------------------------------------------------------|
E------------------------------------------------------------------------|


e-------5/7---10/12-12^--------------------------------------------------|
B---5/7----------------12---9p10p9---5/7---------------------------------|
G------------------------------------------------------------------------|
D------------------------------------------------------------------------|
A------------------------------------------------------------------------|
E------------------------------------------------------------------------|
www.twistedblack.iwarp.com
Related for Alone With Misery tab