Song name
# A B C D E F G H I J K L M N O P Q R S T U V W X Y Z

Twisted Black - Metal Crap tab


                          METAL CRAP


Tabbed: Michael
Created by Michael
made this one up the other day purrty good!

X-is palm mute

e ----------------------------------------------------------------------|
B ----------------------------------------------------------------------|
G ----------------------------------------------------------------------|
D ------------------5---------------------------------------------------|
A ---x2-x2-2-x2--x2-5-x2-x2---2------------x1-1-------------------------|
E ---x0-x0-0-x0--x0-3-x0-x0---0---x0-x2-x3------------------------------|

e ----------------------------------------------------------------------|
B ----------------------------------------------------------------------|
G ----------------------------------------------------------------------|
D -----------------5----------------------------------------------------|
A ---x2-x2-2-x2-x2-5-x2-x2-2---3-2--------------------------------------|
E ---x0-x0-0-x0-x0-3-x0-x0-0--------3-2-0-------------------------------|
Tap to rate this tab
# A B C D E F G H I J K L M N O P Q R S T U V W X Y Z