Song name
# A B C D E F G H I J K L M N O P Q R S T U V W X Y Z

Twisted Coil - One Of Us Acoustic tab

One (acoustic) Tab
Twisted Coil
Tabbed by Fenix

Hopefully this tab helps you. It's fairly simple with a little practice you should have 
down.The tuning is is down one half step so Eb Ab Db Gb Bb Eb
I'm not doing Palm mutes because I'm lazy

Verse Riff
------------------------------------------------------------------------|
------------------------------------------------------------------------|
------------------------------------------------------------------------|
---------------2---4-----------2---4---------2---4-----------5------2---|
-------4-x-x-0---2----4-x-x--0---2---4-x-x-0---2---4-x-x-0-3---2--0-----|
-12\\2-x-x----------2-x-x----------2-x-x---------2-x-x------------------|
slide on 12 for intro only

chorus                                      x3   then
---------------------------------------------------|--------------------|
---------------------------------------------------|--------------------|
---------------------------------------------------|--------------------|
-4-4--4444/7----------444/7---4--------------------|--------------------|
-2-2--2222/5----------222/5---2-------444/7--444/7-|444/7-444/7-4444444-|
--------------------------------------222/5--222/5-|222/5-222/5-2222222-|
Trying to be...etc                  like one of us..

Bridge
-------------------------------------------------------------------------|
-------------------------------------------------------------------------|
-------------------------------------------------------------------------|
-4----4-5-0--------------------------------------------------------------|
-2-----------4--0-5-7-4-0------------------------------------------------|
-------------2-----------------------------------------------------------|

Interlude

-----------------------------------------------------------------------|
-----------------------------------------------------------------------|
-----------------------------------------------------------------------|
-----------------------------------------------------------------------|
-4--x-x--444-444---4--x-x-444-444---4--x-x-444-444--4---4--4--4--------|
-2--x-x--222-222---2--x-x-222-222---2--x-x-222-222--2---2--2--2--------|
Tap to rate this tab
# A B C D E F G H I J K L M N O P Q R S T U V W X Y Z