Song name
# A B C D E F G H I J K L M N O P Q R S T U V W X Y Z

Twisted Method - The End tab

"The End"
Twisted Method

Tuning AEADF#B

R.I.P. Andy,

B|---------------------------------------------------------|
F#|--------------------------------------------------------|
D|---------------------------------------------------------|
A|---------------------------------------------------------|
E|-----------------------------6-0-6-0--6-0-6-0--0--0-1-0--|
A|--0--1p0-1p0---1p0-1p0--1p0--6-0-6-0--6-0-6-0--0--0-1-0--|

VERSE
B|---------------------------------|
F#|--------------------------------|
D|---------------------------------|
A|---------------------------------|
E|---------------------------------|
A|--0-5-6-0-3-2-1-0-1-0-1-0-3-2-1--|

B|------------------------------------------------|
F#|-----------------------------------------------|
D|------------------------------------------------|
A|------------------------------------------------|
E|--0-X-0-X-0-X-0-X-0-X-0-X-0-X-0--0--1--0-3-2-1--|
A|--0-X-0-X-0-X-0-X-0-X-0-X-0-X-0--0--1--0-3-2-1--|


PRE-CHORUS
B|----------------------------------------------------------|
F#|---------------------------------------------------------|
D|--------------------------------4-4--4-4-4--4-4-4--4-4-4--|
A|--------------------------------3-3--3-3-3--3-3-3--3-3-3--|
E|--------------------------------2-2--2-2-2--2-2-2--2-2-2--|
A|-0-5-6-0-3-2-1-0-1-0-1-0-3-2-1----------------------------|

CHORUS
B|-----------------------------------------|
F#|----------------------------------------|
D|-----------------------------------------|
A|-----------------------------------------|
E|--0--0-0-4--4-4-4-5--5-5--1--1-1---------|
A|--0--0-0-4--4-4-4-5--5-5--1--1-1--0-1-0--|

B|---------------------------------------|
F#|--------------------------------------|
D|--------------------------------7/8\7--|
A|---------------------------------------|
E|--0--0-0-4--4-4-4-5--5-5--1-----5/6\5--|
A|--0--0-0-4--4-4-4-5--5-5--1---0--------|

B|-----------------------------------------|
F#|----------------------------------------|
D|-----------------------------------------|
A|-----------------------------------------|
E|--0--0-0-4--4-4-4-5--5-5--1--1-1---------|
A|--0--0-0-4--4-4-4-5--5-5--1--1-1--0-1-0--|

B|--------------------------------------------------------------|
F#|-------------------------------------------------------------|
D|--------------------------------------------------------------|
A|-----------------------------------0-5-6-0-5-6-0-5-6-0-5-6-6--|
E|--0--0-0-4--4-4-4-5--5-5--1-1-1-1-----------------------------|
A|--0--0-0-4--4-4-4-5--5-5--1-1-1-1-----------------------------|

BRIDGE
B|---------------------------------------------------------|
F#|--------------------------------------------------------|
D|---------------------------------------------------------|
A|---------------------------------------------------------|
E|-----------------------------6-0-6-0--6-0-6-0--0--0-1-0--|
A|--0--1p0-1p0---1p0-1p0--1p0--6-0-6-0--6-0-6-0--0--0-1-0--|

B|---------------------------------------------------|
F#|--------------------------------------------------|
D|---------------------------------------------------|
A|-------------------------------3*-3*-3*--3*-3*-3*--|
E|--6-0-6-0--6-0-6-0--0--0-1-0---3*-3*-3*--3*-3*-3*--|
A|--6-0-6-0--6-0-6-0--0--0-1-0---3*-3*-3*--3*-3*-3*--|
                                   * = HARMONICS
Tap to rate this tab
# A B C D E F G H I J K L M N O P Q R S T U V W X Y Z