Song name
# A B C D E F G H I J K L M N O P Q R S T U V W X Y Z

Twisted Sister - Smf tab

-----------------------------------------------------------------------------
	       Stay Hungry 1984 - S.M.F - Twisted Sister
-----------------------------------------------------------------------------
Tabbed by:KissinTime
Email:

Tuning:

Riff.1 x3
e|-3----||---------------|
B|-3----||---------------|
G|-0-2--||---------------|
D|-0-2-2||--5----2-------|
A|---0-2||--5----2-------|
E|-----0||--3----0-------|

Riff.2        
6x            2x          2x         2x (about)                             
e|----------||-----------------------------------------------------|
B|----------||-----------------------------------------------------|
G|----------||-----------------------------------------------------|
D|--5--4--2-||-5--4--7----5--4--2----5--4--7--7--7--5--5-----------|
A|--5--4--2-||-5--4--7----5--4--2----5--4--7--7--7--5--5-----------|
E|--3--2--0-||-3--2--5----3--2--0----3--2--5--5--5--3--3-----------|

Riff.4
3x
  Youre an Smf...
e|--------------------|-----------------------------------------------|
B|--------------------|-----------------------------------------------|
G|--------------------|-----------------------------------------------|
D|-5--4--2-------5--7-|-----------------------------------------------|
A|-5--4--2-------5--7-|---5--4--2-------------------------------------|
E|-3--2--0-------3--5-|---3--2--0-------------------------------------|

| /  slide up
| \  slide down
| h  hammer-on
| p  pull-off
| ~  vibrato
| +  harmonic
| x  Mute note
============================================================================
Tap to rate this tab
 
# A B C D E F G H I J K L M N O P Q R S T U V W X Y Z