Song name
# A B C D E F G H I J K L M N O P Q R S T U V W X Y Z

Twisted Sister - Heavy Metal Christmas tab

Twisted Sister - Heavy Metal Christmas                   
    								       
tabbed by FEPO on 28. December 2010            	                             

grave-digger2@web.de			       


Hi Guys, this is my third Rookie Tab. Don't be so hard with me :)
I had hear this X-Mas Song on youtube, but i didn't found any TAB
from this Song. 

This Song is very good for Rookies ( Also myself ) :)

So i have make a try to tab it :), but i haven't tabbed the dive Bombs


Hear the Song, to feel the Song and the Rythm

Tuning: Dropped D     D A D G B E

~ = Let it ring

Have fun and enjoy :)


Intro:

|---------------------------------------------------------------------|
|---------------------------------------------------------------------|
|---------------------------------------------------------------------|
|---------------------------------------------------------------------|
|-----6~~~~~~~~~~~~~~~~~-------------6~~~~~~~~~~~~~~~~----------------|
|-----6~~~~~~~~~~~~~~~~~-------------6~~~~~~~~~~~~~~~~----------------|


      On my Heavy Metal Christmas, my true love gave to me
|---------------------------------------------------------------------|
|---------------------------------------------------------------------|
|---------------------------------------------------------------------|
|---------------------------------------------------------------------|
|------6~~~~~~~~~~~~~~~~~~~~~~~~~~~~~~~~~~~~~~~~~~~~~~~~~~------------|
|------6~~~~~~~~~~~~~~~~~~~~~~~~~~~~~~~~~~~~~~~~~~~~~~~~~~------------|


       A Tatoo      of   Oz - zy
|---------------------------------------------------------------------|
|---------------------------------------------------------------------|
|------8~~~~~-------5----3--------------------------------------------|
|------8~~~~~-------5----3--------------------------------------------|
|------6~~~~~-------3----1----6~~~~~~~~~------------------------------|
|-----------------------------6~~~~~~~~~------------------------------|


      On my heavy metal Christmas my true love gave to me
|---------------------------------------------------------------------|
|---------------------------------------------------------------------|
|---------------------------------------------------------------------|
|---------------------------------------------------------------------|
|------6~~~~~~~~~~~~~~~~~~~~~~~~~~~~~~~~~~~~~~~~~~~~~~~~~~------------|
|------6~~~~~~~~~~~~~~~~~~~~~~~~~~~~~~~~~~~~~~~~~~~~~~~~~~------------|


      two pairs of spandex pants   and a tattoo of Oz - zy!
|---------------------------------------------------------------------|
|---------------------------------------------------------------------|
|------8~~~~~~~~~~~~~~~~~~~~~~-----------8~~~~--5--3------------------|
|------8~~~~~~~~~~~~~~~~~~~~~~-----------8~~~~--5--3------------------|
|------6~~~~~~~~~~~~~~~~~~~~~~-----------6~~~~--3--1----6~~~~~~~~-----|
|-------------------------------------------------------6~~~~~~~~-----|


     On my heavy metal Christmas my true love gave to me
|---------------------------------------------------------------------|
|---------------------------------------------------------------------|
|---------------------------------------------------------------------|
|---------------------------------------------------------------------|
|------6~~~~~~~~~~~~~~~~~~~~~~~~~~~~~~~~~~~~~~~~~~~~~~~~~~------------|
|------6~~~~~~~~~~~~~~~~~~~~~~~~~~~~~~~~~~~~~~~~~~~~~~~~~~------------|


     3 studded belts           2 pairs of spandex pants 
|---------------------------------------------------------------------|
|---------------------------------------------------------------------|
|----8~~~~~~-------------------8~~~~~~--------------------------------|
|----8~~~~~~-------------------8~~~~~~--------------------------------|
|----6~~~~~~-------------------6~~~~~~--------------------------------|
|---------------------------------------------------------------------|


	and a tattoo of Oz - zy!
|---------------------------------------------------------------------|
|---------------------------------------------------------------------|
|-------------8~~~---5--3---------------------------------------------|
|-------------8~~~---5--3---------------------------------------------|
|-------------6~~~---3--1----6~~~~------------------------------------|
|----------------------------6~~~~------------------------------------|

       On my heavy metal Christmas my true love gave to me
|---------------------------------------------------------------------|
|---------------------------------------------------------------------|
|---------------------------------------------------------------------|
|---------------------------------------------------------------------|
|------6~~~~~~~~~~~~~~~~~~~~~~~~~~~~~~~~~~~~~~~~~~~~~~~~~~------------|
|------6~~~~~~~~~~~~~~~~~~~~~~~~~~~~~~~~~~~~~~~~~~~~~~~~~~------------|


  4 quarts of Jack    3 studded belts    2 pairs of spandex pants 
|---------------------------------------------------------------------|
|---------------------------------------------------------------------|
|-8~~~~~~~~~~~~~~-----8~~~~~~~~~~~~~~----8~~~~~~~~~~~~~~--------------|
|-8~~~~~~~~~~~~~~-----8~~~~~~~~~~~~~~----8~~~~~~~~~~~~~~--------------|
|-6~~~~~~~~~~~~~~-----6~~~~~~~~~~~~~~----6~~~~~~~~~~~~~~--------------|
|---------------------------------------------------------------------|


	and a tattoo of Oz - zy!
|---------------------------------------------------------------------|
|---------------------------------------------------------------------|
|-------------8~~~---5--3---------------------------------------------|
|-------------8~~~---5--3---------------------------------------------|
|-------------6~~~---3--1----6~~~~------------------------------------|
|----------------------------6~~~~------------------------------------|

       On my heavy metal Christmas my true love gave to me
|---------------------------------------------------------------------|
|---------------------------------------------------------------------|
|---------------------------------------------------------------------|
|------6~~~~~~~~~~~~~~~~~~~~~~~~~~~~~~~~~~~~~~~~~~~~~~~~~~------------|
|------6~~~~~~~~~~~~~~~~~~~~~~~~~~~~~~~~~~~~~~~~~~~~~~~~~~------------|
|------4~~~~~~~~~~~~~~~~~~~~~~~~~~~~~~~~~~~~~~~~~~~~~~~~~~------------|


   5         skull ear-rings
|---------------------------------------------------------------------|
|---------------------------------------------------------------------|
|--8~~~~-----10----7---8~~~-------------------------------------------|
|--8~~~~-----10----7---8~~~-------------------------------------------|
|--6~~~~-----8-----5---6~~~-------------------------------------------|
|---------------------------------------------------------------------|


  4 quarts of Jack    3 studded belts    2 pairs of spandex pants 
|---------------------------------------------------------------------|
|---------------------------------------------------------------------|
|---------------------6~~~~~~~~~~~~~~----8~~~~~~~~~~~~~~--------------|
|---------------------6~~~~~~~~~~~~~~----8~~~~~~~~~~~~~~--------------|
|-6~~~~~~~~~~~~~~-----4~~~~~~~~~~~~~~----6~~~~~~~~~~~~~~--------------|
|-6~~~~~~~~~~~~~~-----------------------------------------------------|


	and a tattoo of Oz - zy!
|---------------------------------------------------------------------|
|---------------------------------------------------------------------|
|-------------8~~~---5--3---------------------------------------------|
|-------------8~~~---5--3---------------------------------------------|
|-------------6~~~---3--1----6~~~~------------------------------------|
|----------------------------6~~~~------------------------------------|


       On my heavy metal Christmas my true love gave to me
|---------------------------------------------------------------------|
|---------------------------------------------------------------------|
|---------------------------------------------------------------------|
|---------------------------------------------------------------------|
|------6~~~~~~~~~~~~~~~~~~~~~~~~~~~~~~~~~~~~~~~~~~~~~~~~~~------------|
|------6~~~~~~~~~~~~~~~~~~~~~~~~~~~~~~~~~~~~~~~~~~~~~~~~~~------------|


    6 cans of Hairspray            5         skull ear-rings     
|---------------------------------------------------------------------|
|---------------------------------------------------------------------|
|---8~~~~~~~~~---------------------8~~~~~----10----7---8--------------|
|---8~~~~~~~~~---------------------8~~~~~----10----7---8--------------|
|---6~~~~~~~~~---------------------6~~~~~----8-----5---6--------------|
|---------------------------------------------------------------------|


  4 quarts of Jack    3 studded belts    2 pairs of spandex pants 
|---------------------------------------------------------------------|
|---------------------------------------------------------------------|
|---------------------6~~~~~~~~~~~~~~----8~~~~~~~~~~~~~~--------------|
|---------------------6~~~~~~~~~~~~~~----8~~~~~~~~~~~~~~--------------|
|-6~~~~~~~~~~~~~~-----4~~~~~~~~~~~~~~----6~~~~~~~~~~~~~~--------------|
|-6~~~~~~~~~~~~~~-----------------------------------------------------|

	and a tattoo of Oz - zy!
|---------------------------------------------------------------------|
|---------------------------------------------------------------------|
|-------------8~~~---5--3---------------------------------------------|
|-------------8~~~---5--3---------------------------------------------|
|-------------6~~~---3--1----6~~~~------------------------------------|
|----------------------------6~~~~------------------------------------|


       On my heavy metal Christmas my true love gave to me
|---------------------------------------------------------------------|
|---------------------------------------------------------------------|
|---------------------------------------------------------------------|
|---------------------------------------------------------------------|
|-------------6~~~~~~~~~~~~~~~~~~~~~~~~~~~~~~~~~~~~~~~~~~~~~~~~~~------------|
|-------------6~~~~~~~~~~~~~~~~~~~~~~~~~~~~~~~~~~~~~~~~~~~~~~~~~~------------|


   7 leather jackets                 6 cans of Hairspray 
|---------------------------------------------------------------------|
|---------------------------------------------------------------------|
|--8~~~~~~~~~~~~~~~~-----------------8~~~~~~~~~~~~~~~~~~--------------|
|--8~~~~~~~~~~~~~~~~-----------------8~~~~~~~~~~~~~~~~~~--------------|
|--6~~~~~~~~~~~~~~~~-----------------6~~~~~~~~~~~~~~~~~~--------------|
|---------------------------------------------------------------------|


   5         skull ear-rings
|---------------------------------------------------------------------|
|---------------------------------------------------------------------|
|--8~~~~-----10----7---8~~~-------------------------------------------|
|--8~~~~-----10----7---8~~~-------------------------------------------|
|--6~~~~-----8-----5---6~~~-------------------------------------------|
|---------------------------------------------------------------------|



  4 quarts of Jack    3 studded belts    2 pairs of spandex pants 
|---------------------------------------------------------------------|
|---------------------------------------------------------------------|
|---------------------6~~~~~~~~~~~~~~----8~~~~~~~~~~~~~~--------------|
|---------------------6~~~~~~~~~~~~~~----8~~~~~~~~~~~~~~--------------|
|-6~~~~~~~~~~~~~~-----4~~~~~~~~~~~~~~----6~~~~~~~~~~~~~~--------------|
|-6~~~~~~~~~~~~~~-----------------------------------------------------|

	and a tattoo of Oz - zy!
|---------------------------------------------------------------------|
|---------------------------------------------------------------------|
|-------------8~~~---5--3---------------------------------------------|
|-------------8~~~---5--3---------------------------------------------|
|-------------6~~~---3--1----6~~~~------------------------------------|
|----------------------------6~~~~------------------------------------|


       On my heavy metal Christmas my true love gave to me
|---------------------------------------------------------------------|
|---------------------------------------------------------------------|
|---------------------------------------------------------------------|
|---------------------------------------------------------------------|
|-------------6~~~~~~~~~~~------------1~~~~~~-----------6~~~~~--------|
|-------------6~~~~~~~~~~~------------1~~~~~~-----------6~~~~~--------|


   8  Pentagrams
|---------------------------------------------------------------------|
|---------------------------------------------------------------------|
|--8~~~~~~~~~~~~------------------------------------------------------|
|--8~~~~~~~~~~~~------------------------------------------------------|
|--6~~~~~~~~~~~~------------------------------------------------------|
|---------------------------------------------------------------------|


   7 leather jackets                 6 cans of Hairspray 
|---------------------------------------------------------------------|
|---------------------------------------------------------------------|
|--8~~~~~~~~~~~~~~~~-----------------8~~~~~~~~~~~~~~~~~~--------------|
|--8~~~~~~~~~~~~~~~~-----------------8~~~~~~~~~~~~~~~~~~--------------|
|--6~~~~~~~~~~~~~~~~-----------------6~~~~~~~~~~~~~~~~~~--------------|
|---------------------------------------------------------------------|


   5         skull ear-rings
|---------------------------------------------------------------------|
|---------------------------------------------------------------------|
|--8~~~~-----10----7---8~~~-------------------------------------------|
|--8~~~~-----10----7---8~~~-------------------------------------------|
|--6~~~~-----8-----5---6~~~-------------------------------------------|
|---------------------------------------------------------------------|



  4 quarts of Jack    3 studded belts    2 pairs of spandex pants 
|---------------------------------------------------------------------|
|---------------------------------------------------------------------|
|---------------------6~~~~~~~~~~~~~~----8~~~~~~~~~~~~~~--------------|
|---------------------6~~~~~~~~~~~~~~----8~~~~~~~~~~~~~~--------------|
|-6~~~~~~~~~~~~~~-----4~~~~~~~~~~~~~~----6~~~~~~~~~~~~~~--------------|
|-6~~~~~~~~~~~~~~-----------------------------------------------------|

	and a tattoo of Oz - zy!
|---------------------------------------------------------------------|
|---------------------------------------------------------------------|
|-------------8~~~---5--3---------------------------------------------|
|-------------8~~~---5--3---------------------------------------------|
|-------------6~~~---3--1----6~~~~------------------------------------|
|----------------------------6~~~~------------------------------------|



       On my heavy metal Christmas my true love gave to me

	  PM . . . . . . . .           . . . .          . . . .
|---------------------------------------------------------------------|
|---------------------------------------------------------------------|
|---------------------------------------------------------------------|
|---------------------------------------------------------------------|
|------------6-6-6-6-6-6-6-6-----------1-1-1-1----------6-6-6-6-------|
|------------6-6-6-6-6-6-6-6-----------1-1-1-1----------6-6-6-6-------|


   9 tattered  T-Shirts		     8 Pentagrams
|---------------------------------------------------------------------|
|---------------------------------------------------------------------|
|--8~~~~~~~~~~~~~~~~~~~--------------8~~~~~~~~~~~---------------------|
|--8~~~~~~~~~~~~~~~~~~~--------------8~~~~~~~~~~~---------------------|
|--6~~~~~~~~~~~~~~~~~~~--------------6~~~~~~~~~~~---------------------|
|---------------------------------------------------------------------|


   7 leather jackets                 6 cans of Hairspray 
|---------------------------------------------------------------------|
|---------------------------------------------------------------------|
|--8~~~~~~~~~~~~~~~~-----------------8~~~~~~~~~~~~~~~~~~--------------|
|--8~~~~~~~~~~~~~~~~-----------------8~~~~~~~~~~~~~~~~~~--------------|
|--6~~~~~~~~~~~~~~~~-----------------6~~~~~~~~~~~~~~~~~~--------------|
|---------------------------------------------------------------------|


   5         skull ear-rings
|---------------------------------------------------------------------|
|---------------------------------------------------------------------|
|--8~~~~-----10----7---8~~~-------------------------------------------|
|--8~~~~-----10----7---8~~~-------------------------------------------|
|--6~~~~-----8-----5---6~~~-------------------------------------------|
|---------------------------------------------------------------------|



  4 quarts of Jack    3 studded belts    2 pairs of spandex pants 
|---------------------------------------------------------------------|
|---------------------------------------------------------------------|
|---------------------6~~~~~~~~~~~~~~----8~~~~~~~~~~~~~~--------------|
|---------------------6~~~~~~~~~~~~~~----8~~~~~~~~~~~~~~--------------|
|-6~~~~~~~~~~~~~~-----4~~~~~~~~~~~~~~----6~~~~~~~~~~~~~~--------------|
|-6~~~~~~~~~~~~~~-----------------------------------------------------|

	and a tattoo of Oz - zy!
|---------------------------------------------------------------------|
|---------------------------------------------------------------------|
|-------------8~~~---5--3---------------------------------------------|
|-------------8~~~---5--3---------------------------------------------|
|-------------6~~~---3--1----6~~~~------------------------------------|
|----------------------------6~~~~------------------------------------|


 On my heavy metal Christmas my true love gave to me

	  PM . ... . ...          . ...            . ...
|---------------------------------------------------------------------|
|---------------------------------------------------------------------|
|---------------------------------------------------------------------|
|---------------------------------------------------------------------|
|------------6-666-6-666----------1-111------------6-666--------------|
|------------6-666-6-666----------1-111------------6-666--------------|


   10 pairs of Platforms

|---------------------------------------------------------------------|
|---------------------------------------------------------------------|
|--8~~~~~~~~~~~~~~~~~~~-----------------------------------------------|
|--8~~~~~~~~~~~~~~~~~~~-----------------------------------------------|
|--6~~~~~~~~~~~~~~~~~~~-----------------------------------------------|
|---------------------------------------------------------------------|

   9 tattered  T-Shirts		     8 Pentagrams
|---------------------------------------------------------------------|
|---------------------------------------------------------------------|
|--8~~~~~~~~~~~~~~~~~~~--------------8~~~~~~~~~~~---------------------|
|--8~~~~~~~~~~~~~~~~~~~--------------8~~~~~~~~~~~---------------------|
|--6~~~~~~~~~~~~~~~~~~~--------------6~~~~~~~~~~~---------------------|
|---------------------------------------------------------------------|


   7 leather jackets                 6 cans of Hairspray 
|---------------------------------------------------------------------|
|---------------------------------------------------------------------|
|--8~~~~~~~~~~~~~~~~-----------------8~~~~~~~~~~~~~~~~~~--------------|
|--8~~~~~~~~~~~~~~~~-----------------8~~~~~~~~~~~~~~~~~~--------------|
|--6~~~~~~~~~~~~~~~~-----------------6~~~~~~~~~~~~~~~~~~--------------|
|---------------------------------------------------------------------|


   5         skull ear-rings
|---------------------------------------------------------------------|
|---------------------------------------------------------------------|
|--8~~~~-----10----7---8~~~-------------------------------------------|
|--8~~~~-----10----7---8~~~-------------------------------------------|
|--6~~~~-----8-----5---6~~~-------------------------------------------|
|---------------------------------------------------------------------|



  4 quarts of Jack    3 studded belts    2 pairs of spandex pants 
|---------------------------------------------------------------------|
|---------------------------------------------------------------------|
|---------------------6~~~~~~~~~~~~~~----8~~~~~~~~~~~~~~--------------|
|---------------------6~~~~~~~~~~~~~~----8~~~~~~~~~~~~~~--------------|
|-6~~~~~~~~~~~~~~-----4~~~~~~~~~~~~~~----6~~~~~~~~~~~~~~--------------|
|-6~~~~~~~~~~~~~~-----------------------------------------------------|

	and a tattoo of Oz - zy!
|---------------------------------------------------------------------|
|---------------------------------------------------------------------|
|-------------8~~~---5--3---------------------------------------------|
|-------------8~~~---5--3---------------------------------------------|
|-------------6~~~---3--1----6~~~~------------------------------------|
|----------------------------6~~~~------------------------------------|


       On my heavy metal Christmas my true love gave to me
|---------------------------------------------------------------------|
|---------------------------------------------------------------------|
|---------------------------------------------------------------------|
|---------------------------------------------------------------------|
|-------------6~~~~~~~~~~~------------1~~~~~~-----------6~~~~~--------|
|-------------6~~~~~~~~~~~------------1~~~~~~-----------6~~~~~--------|


   11 black Mascaras			 10 pairs of Platforms
|---------------------------------------------------------------------|
|---------------------------------------------------------------------|
|--8~~~~~~~~~~~~~~~~----------------------8~~~~~~~~~~~~~~~~~~~--------|
|--8~~~~~~~~~~~~~~~~----------------------8~~~~~~~~~~~~~~~~~~~--------|
|--6~~~~~~~~~~~~~~~~----------------------6~~~~~~~~~~~~~~~~~~~--------|
|---------------------------------------------------------------------|

   9 tattered  T-Shirts		     8 Pentagrams
|---------------------------------------------------------------------|
|---------------------------------------------------------------------|
|--8~~~~~~~~~~~~~~~~~~~--------------8~~~~~~~~~~~---------------------|
|--8~~~~~~~~~~~~~~~~~~~--------------8~~~~~~~~~~~---------------------|
|--6~~~~~~~~~~~~~~~~~~~--------------6~~~~~~~~~~~---------------------|
|---------------------------------------------------------------------|


   7 leather jackets                 6 cans of Hairspray 
|---------------------------------------------------------------------|
|---------------------------------------------------------------------|
|--8~~~~~~~~~~~~~~~~-----------------8~~~~~~~~~~~~~~~~~~--------------|
|--8~~~~~~~~~~~~~~~~-----------------8~~~~~~~~~~~~~~~~~~--------------|
|--6~~~~~~~~~~~~~~~~-----------------6~~~~~~~~~~~~~~~~~~--------------|
|---------------------------------------------------------------------|


   5         skull ear-rings
|---------------------------------------------------------------------|
|---------------------------------------------------------------------|
|--8~~~~-----10----7---8~~~-------------------------------------------|
|--8~~~~-----10----7---8~~~-------------------------------------------|
|--6~~~~-----8-----5---6~~~-------------------------------------------|
|---------------------------------------------------------------------|



  4 quarts of Jack    3 studded belts    2 pairs of spandex pants 
|---------------------------------------------------------------------|
|---------------------------------------------------------------------|
|---------------------6~~~~~~~~~~~~~~----8~~~~~~~~~~~~~~--------------|
|---------------------6~~~~~~~~~~~~~~----8~~~~~~~~~~~~~~--------------|
|-6~~~~~~~~~~~~~~-----4~~~~~~~~~~~~~~----6~~~~~~~~~~~~~~--------------|
|-6~~~~~~~~~~~~~~-----------------------------------------------------|

	and a tattoo of Oz - zy!
|---------------------------------------------------------------------|
|---------------------------------------------------------------------|
|-------------8~~~---5--3---------------------------------------------|
|-------------8~~~---5--3---------------------------------------------|
|-------------6~~~---3--1----6~~~~------------------------------------|
|----------------------------6~~~~------------------------------------|


       On my heavy metal Christmas my true love gave to me
|---------------------------------------------------------------------|
|---------------------------------------------------------------------|
|---------------------------------------------------------------------|
|---------------------------------------------------------------------|
|-------------6~~~~~~~~~~~------------1~~~~~~-----------6~~~~~--------|
|-------------6~~~~~~~~~~~------------1~~~~~~-----------6~~~~~--------|


   12 silver crosses
|---------------------------------------------------------------------|
|---------------------------------------------------------------------|
|--8------------------------------------------------------------------|
|--8------------------------------------------------------------------|
|--6------------------------------------------------------------------|
|---------------------------------------------------------------------|


   11 black Mascaras			 10 pairs of Platforms
|---------------------------------------------------------------------|
|---------------------------------------------------------------------|
|--8--------------------------------------8---------------------------|
|--8--------------------------------------8---------------------------|
|--6--------------------------------------6---------------------------|
|---------------------------------------------------------------------|

   9 tattered  T-Shirts		     8 Pentagrams
|---------------------------------------------------------------------|
|---------------------------------------------------------------------|
|--8---------------------------------8--------------------------------|
|--8---------------------------------8--------------------------------|
|--6---------------------------------6--------------------------------|
|---------------------------------------------------------------------|


   7 leather jackets                 6 cans of Hairspray 
|---------------------------------------------------------------------|
|---------------------------------------------------------------------|
|--8---------------------------------8---------8---8------------------|
|--8---------------------------------8---------8---8------------------|
|--6---------------------------------6---------6---6------------------|
|---------------------------------------------------------------------|

 HI GUYS HERE IS A LITTLE REST FROM APPROX.  4 SECONDS  ! ! ! 


   5         skull ear-rings
|---------------------------------------------------------------------|
|---------------------------------------------------------------------|
|--8~~~~-----10----7---8~~~-------------------------------------------|
|--8~~~~-----10----7---8~~~-------------------------------------------|
|--6~~~~-----8-----5---6~~~-------------------------------------------|
|---------------------------------------------------------------------|



  4 quarts of Jack    3 studded belts    2 pairs of spandex pants 
|---------------------------------------------------------------------|
|---------------------------------------------------------------------|
|---------------------6~~~~~~~~~~~~~~----8~~~~~~~~~~~~~~--------------|
|---------------------6~~~~~~~~~~~~~~----8~~~~~~~~~~~~~~--------------|
|-6~~~~~~~~~~~~~~-----4~~~~~~~~~~~~~~----6~~~~~~~~~~~~~~--------------|
|-6~~~~~~~~~~~~~~-----------------------------------------------------|

        and a tattoo   of     Oz - zy!
|---------------------------------------------------------------------|
|---------------------------------------------------------------------|
|-------------8--10----6--5---3---------------------------------------|
|-------------8--10----6--5---3---------------------------------------|
|-------------6--8-----4--3---1----6~~~~------------------------------|
|----------------------------------6~~~~------------------------------|


Tap to rate this tab
 
# A B C D E F G H I J K L M N O P Q R S T U V W X Y Z