Song name
# A B C D E F G H I J K L M N O P Q R S T U V W X Y Z

Twisted Sister - I Wanna Rock tab

----------------------------------------------------------
INTRO

|--------------------------------------------|
|--------------------------------------------|
|--------------------------------------------|
|-----------7x77-----------------7x77--9--5--| x2
|--7---5x55-5x55--2--5--7---5x55-5x55--7--3--|
|--5---3x33-------0--3--5---3x33-------------|

|-----|
|-----|
|-----|
|-----|
|--7--|
|--5--|

----------------------------------------------------------
VERSE 1

|----------------------------|
|----------------------------|
|----------------------------|
|--------77------------77----|
|--7--55-55-7----7--55-55-7--|
|--5--33----5----5--33----5--|

|---------------------------------------------------|
|---------------------------------------------------|
|---------------------------------------------------|
|----7--------------7--7--7--7-------------x5----7--|
|--5-5--5--5--5--5--5--5--5--5--5--5--5--5-x3-x5-5--|
|--3----3--3--3--3--------------3--3--3--3----x3----|

----------------------------------------------------------
CHORUS 1

|--------------------------------------------|
|--------------------------------------------|
|--------------------------------------------|
|-----------7x77-----------------7x77--9--5--|
|--7---5x55-5x55--2--5--7---5x55-5x55--7--3--|
|--5---3x33-------0--3--5---3x33-------------|

|--------------------------------------------|
|--------------------------------------------|
|--------------------------------------------|
|-----------7x77-----------------7x77--9--5--|
|--7---5x55-5x55--2--5------5x55-5x55--7--3--|
|--5---3x33-------0--3------3x33-------------|

|-----|
|-----|
|-----|
|-----|
|--7--|
|--5--|

----------------------------------------------------------
VERSE 2 (SAME AS THE FIRST)

|----------------------------|
|----------------------------|
|----------------------------|
|--------77------------77----|
|--7--55-55-7----7--55-55-7--|
|--5--33----5----5--33----5--|

|---------------------------------------------------|
|---------------------------------------------------|
|---------------------------------------------------|
|----7--------------7--7--7--7-------------x5----7--|
|--5-5--5--5--5--5--5--5--5--5--5--5--5--5-x3-x5-5--|
|--3----3--3--3--3--------------3--3--3--3----x3----|

----------------------------------------------------------
CHORUS 2

|--------------------------------------------|
|--------------------------------------------|
|--------------------------------------------|
|-----------7x77-----------------7x77--9--5--|
|--7---5x55-5x55--2--5--7---5x55-5x55--7--3--|
|--5---3x33-------0--3--5---3x33-------------|

|--------------------------------------------|
|--------------------------------------------|
|--------------------------------------------|
|-----------7x77-----------------7x77--9--5--|
|--7---5x55-5x55--2--5------5x55-5x55--7--3--|
|--5---3x33-------0--3------3x33-------------|
                                 I WANNA ROCK!

-----------------------------------------------------------
BRIDGE (PLAY THIS TWICE)

|-----|       |-----|       |-----| |--------|
|-----|       |-----|       |-----| |--------|
|-----|       |-----|       |-----| |--------|
|-----|       |-----|       |-----| |--------|
|--7--|       |--7--|       |--7--| |--2--5--|
|--5--|       |--5--|       |--5--| |--0--3--|
(ROCK!) ROCK! (ROCK!) ROCK! (ROCK!) I WANNA ROCK!

|-----|       |-----|       |-----| |--------|
|-----|       |-----|       |-----| |--------|
|-----|       |-----|       |-----| |--------|
|-----|       |-----|       |-----| |--9--5--|
|--7--|       |--7--|       |--7--| |--7--3--|
|--5--|       |--5--|       |--5--| |--------|
(ROCK!) ROCK! (ROCK!) ROCK! (ROCK!) I WANT TO ROCK!

-----------------------------------------------------------
SOLO AND FINAL CHORUS - PLAYED LIKE THE CHORUS, TO THE END

-----------------------------------------------------------
Tap to rate this tab
 
# A B C D E F G H I J K L M N O P Q R S T U V W X Y Z