Song name
# A B C D E F G H I J K L M N O P Q R S T U V W X Y Z

Twisted Sister - Tear It Loose tab

Band:  Twisted Sister
Album: Under The Blade
Song:  Tear it Loose guitar solo

Copyright (c)  (Secret) (1982)
Version 1.0 - (17/06/06)

Transcribed By: Steve
Email:          stephen.elvidge1@ntlworld.com


.  - palm mute           /  - slide up to
\  - slide down to       ~  - vibrato
h  - hammer on           b  - Bend
p  - pull off            Suffixes for bend
t  - tap                 f  - full bend    h - half bend
ph - pinched harmonic    q  - quarter bend t - tap bend
                         p  - pre bend
*  - see comment         ^  - Hold bend    r release bend
x  - Stuccatto           ~  - vibrato bend
,  - slight palm mute    () - ghost note, sustained note
"  - tremolo note        <> - harmonic

Tuning E A D G B E

 Left channel
                     [-PM-]h             ~~~~
|-------------------------------------------------|
|-10fb--rp8---------------------------------------|
|-----------9--------------------7/12-12-9----12\-|
|--------------7b--5---------7-9------------------|
|------------------------3-5----------------------|
|--------------------3-5--------------------------|

 Right channel
               h                                h         ~~~~~~~~
|------------------------------------------------------------------|
|-14b-r------------------------------------------------------------|
|-14b-r-14-12-14p12----12----------12-14b-14-12-14p12----12--------|
|-------------------14----14p12-14-12-----------------14-----------|
|------------------------------------------------------------------|
|------------------------------------------------------------------|


|-0000-0000-0000-0000-----------------------|
|-8888-7777-5555-3333-5b5p3-5p3---3---------|
|-------------------------------4---4-2--\--|
|-------------------------------------------|
|-------------------------------------------|
|-------------------------------------------|

 Left Channel
                     ~~~~~~~                          ~~~~~
|-------------------17fb--b----------------------------------|
|-14-17-17fb----r14-------------14-17fb----r14-12----12------|
|----------------------------16b------------------14---------|
|------------------------------------------------------------|
|------------------------------------------------------------|
|------------------------------------------------------------|

 Both Left and Right play simultaneously

 Right channel
                  h           h
|-------------------------------------------------------------|
|--------------------------------------------------5----------|
|-4fb-4fb-4fb-4-2-4p2---2---------------4p2---2-4fb--r4p2---2-|
|---------------------4---4-2-4p2---2-4-----4-------------4---|
|---------------------------------4---------------------------|
|-------------------------------------------------------------|

           ~~                                     ~~~~~~
|-----------------------------------12---12---12---------|
|-----------------5-7p5---5-7/10-12b--12b--12b---12b-----|
|---2-4b---2---/6-------6--------------------------------|
|-4------4---4-------------------------------------------|
|--------------------------------------------------------|
|--------------------------------------------------------|


|-------------------------12---------------------------------------|
|-------------12----12----12----12----12----12----12-----15fb-15fb-|
|-12-14p12----12----12-14b---14b---14b---14b---14b---14b-----------|
|----------14----14------------------------------------------------|
|------------------------------------------------------------------|
|------------------------------------------------------------------|


|-----12----------------------------------------------------------|
|-15fb---15-12----1212-12-----------------------------------------|
|--------------14b--------14-12-14p12----12----------12-14p12-----|
|-------------------------------------14----14p12-14----------14--|
|-----------------------------------------------------------------|
|-----------------------------------------------------------------|

                              ~~~
|-------------------------------------------------------------------|
|-------------------------12------12--------------------------------|
|-12----------12-14p12----12------12----------12-14brp12----14brp12-|
|----14p12-14----------14----14------14p12-14------------14---------|
|-------------------------------------------------------------------|
|-------------------------------------------------------------------|

                                ~~~~~~~~
|----------------------------------------|
|----------------------------------------|
|----14brp12----12-14p12----12-----------|
|-14---------14----------14----14--------|
|----------------------------------------|
|----------------------------------------|

 Left channel

            ~~~
|-----------------------------------10-------10-------10-------10--|
|-14--------------15fb--15fb----\-0----12p10----12p10----12p10-----|
|-16fb---16fb---\----------------0---------------------------------|
|------------------------------------------------------------------|
|------------------------------------------------------------------|
|------------------------------------------------------------------|


|-------10-------10-------10-------10-------10-------10-------|
|-12p10----12p10----12p10----12p10----12p10----12p10----12p10-|
|-------------------------------------------------------------|
|-------------------------------------------------------------|
|-------------------------------------------------------------|
|-------------------------------------------------------------|

                                                   h
|-------------------------------------------------------------------|
|----12----12----12----12----12----12----12----12-15p12----12----12-|
|-14b---14b---14b---14b---14b---14b---14b---14b---------14b---14b---|
|-------------------------------------------------------------------|
|-------------------------------------------------------------------|
|-------------------------------------------------------------------|

                                 h
|-------------------------------------------------------------------|
|-15p12----15p12----15p12----12-15p12----15p12----15p12----15p12----|
|-------14-------14-------14----------14-------14-------14-------12-|
|-------------------------------------------------------------------|
|-------------------------------------------------------------------|
|-------------------------------------------------------------------|

                 h           h           h           h           h
|------------12-15p12----12-15p12----12-15p12----12-15p12----12-15p12-|
|-15p12---------------15----------15----------15----------15----------|
|-------14-\----------------------------------------------------------|
|---------------------------------------------------------------------|
|---------------------------------------------------------------------|
|---------------------------------------------------------------------|

              ~~~~
|----12-15fb------\---|
|-15------------------|
|---------------------|
|---------------------|
|---------------------|
|---------------------|



END

Tap to rate this tab
# A B C D E F G H I J K L M N O P Q R S T U V W X Y Z