Song name
# A B C D E F G H I J K L M N O P Q R S T U V W X Y Z

Twisted Sister - Ill Take You Alive tab

-----------------------------------------------------------------------------
           I'll Take You Alive - Twisted Sister
              You Can't Stop Rock 'n Roll 1983
-----------------------------------------------------------------------------
                                                                             By Kissintime.


Riff 1
E|----------------------------------------------------------------||
B|----------------------------------------------------------------||
G|----9-----9-----9-----9-----9------7--7-------------------------||
D|----9-----9-----9-----9-----9------7--7-------------------------||
A|----7-----7-----7-----7-----7------5--5--10p90h7----------------||
E|-0-0---0-0---0-0---0-0---0-0---0-0------------------------------||

Riff 2
                    
E|----------------------------------||
B|----------------------------------||
G|-9-----5---------9----7-7---------||
D|-9-----5---------9----5-5--10p90h7||
A|-7-----7---------7----5-5---------||
E|-------------------0-0------------||

Riff 3 

E|--------------------------------------||
B|--------------------------------------||
G|-5----7-------9--9--11-12-11-9/11-----||
D|-5----7-------9--9--11-12-11-9/11-----||
A|-3----5-------7--7--9--10-9--7/9------||
E|--------------------------------------||
Tap to rate this tab
# A B C D E F G H I J K L M N O P Q R S T U V W X Y Z