Song name
# A B C D E F G H I J K L M N O P Q R S T U V W X Y Z

Twisted Sister - Be Crool To Your Scuel tab

Twisted Sister
Be Crool To Your Scuel

Intro:

E-----------------------------------------------------------------|
B-----------------------------------------------------------------|
G--9--9----9-9--9----9--------------------------------------------|
D--9--9----9-9--9----9-9------------------------------------------|
A--7--7----7-7--7----7-9----9--11--9--12--9--11--9--12--9--11--9--|
E----------------------7----7---7--7---7--7---7--7---7--7---7--7--|

E-----------------------------------------------------------------|
B-----------------------------------------------------------------|
G-----------------------------------------------------------------|
D----9--9----9-9--9----9--2---------------------------------------|
A----9--9----9-9--9----9--2----2--4--2--5--2--4--2--5--2--4--2----|
E----7--7----7-7--7----7--0----0--0--0--0--0--0--0--0--0--0--0----|

E-----------------------------------------------------------------|
B-----------------------------------------------------------------|
G-----------------------------------------------------------------|
D--2--2----2-2--2----2-9------------------------------------------|
A--2--2----2-2--2----2-9----9--11--9--12--9--11--9--12--9--11--9--|
E--0--0----0-0--0----0-7----7---7--7---7--7---7--7---7--7---7--7--|

E-----------------------------------------------------------------|
B-----------------------------------------------------------------|
G-----------------------------------------------------------------|
D----9--9----9-9--9----9--2---------------------------------------|
A----9--9----9-9--9----9--2----2--4--2--5--2--4--2--5--2--4--2----|
E----7--7----7-7--7----7--0----0--0--0--0--0--0--0--0--0--0--0----|

Verse:

E------------|------------|-------------------------------------------|
B------------|------------|-------------------------------------------|
G--9---------|--9---------|-------------------------------------------|
D--9--11--9--|--9--11--9--|--9----------------------------------------|
A--7--11--9--|--7--11--9--|--9--9--11--9--12--9--11--9--12--9--11--9--|
E------9--7--|------9--7--|--7--7---7--7---7--7---9--7---9--7---9--7--|

E------------|------------|----------------------------------------|
B------------|------------|----------------------------------------|
G-----13-11--|-----13-11--|----------------------------------------|
D--9--13-11--|--9--13-11--|--2-------------------------------------|
A--9--11--9--|--9--11--9--|--2--2--4--2--5--2--4--2--5--2--4--2----|
E--7---------|--7---------|--0--0--0--0--0--0--0--0--0--0--0--0----|

E------------|------------|-------------------------------------------|
B------------|------------|-------------------------------------------|
G--9---------|--9---------|-------------------------------------------|
D--9--11--9--|--9--11--9--|--9----------------------------------------|
A--7--11--9--|--7--11--9--|--9--9--11--9--12--9--11--9--12--9--11--9--|
E------9--7--|------9--7--|--7--7---7--7---7--7---9--7---9--7---9--7--|

E------------|------------|----------------------------------------|
B------------|------------|----------------------------------------|
G-----13-11--|-----13-11--|----------------------------------------|
D--9--13-11--|--9--13-11--|--2-------------------------------------|
A--9--11--9--|--9--11--9--|--2--2--4--2--5--2--4--2--5--2--4--2----|
E--7---------|--7---------|--0--0--0--0--0--0--0--0--0--0--0--0----|

Pre-Chorus:

E-------------------------|-------------------------------------------|
B-------------------------|-------------------------------------------|
G----14-------------------|----14-------------------------------------|
D----14----14---9---14----|----14----14----16-16-16-16-16-16-16-16----|
A----12----14---9---14----|----12----14----16-16-16-16-16-16-16-16----|
E----------12---7---12----|----------12----14-14-14-14-14-14-14-14----|

E---------------------------------------------------------------------|
B---------------------------------------------------------------------|
G---------------------------------------------------------------------|
D----------17----17----17----17--------17----17----17----17-----17----|
A----------17----17----17----17--------17----17----17----17-----17----|
E----------15----15----15----15--------15----15----15----15-----15----|

Chorus:

E-----------------------------------------------------------------|
B-----------------------------------------------------------------|
G--9--9----9-9--9----9--------------------------------------------|
D--9--9----9-9--9----9-9------------------------------------------|
A--7--7----7-7--7----7-9----9--11--9--12--9--11--9--12--9--11--9--|
E----------------------7----7---7--7---7--7---7--7---7--7---7--7--|

E-----------------------------------------------------------------|
B-----------------------------------------------------------------|
G-----------------------------------------------------------------|
D----9--9----9-9--9----9--2---------------------------------------|
A----9--9----9-9--9----9--2----2--4--2--5--2--4--2--5--2--4--2----|
E----7--7----7-7--7----7--0----0--0--0--0--0--0--0--0--0--0--0----|

E-----------------------------------------------------------------|
B-----------------------------------------------------------------|
G-----------------------------------------------------------------|
D--2--2----2-2--2----2-9------------------------------------------|
A--2--2----2-2--2----2-9----9--11--9--12--9--11--9--12--9--11--9--|
E--0--0----0-0--0----0-7----7---7--7---7--7---7--7---7--7---7--7--|

E-----------------------------------------------------------------|
B-----------------------------------------------------------------|
G-----------------------------------------------------------------|
D----9--9----9-9--9----9--2---------------------------------------|
A----9--9----9-9--9----9--2----2--4--2--5--2--4--2--5--2--4--2----|
E----7--7----7-7--7----7--0----0--0--0--0--0--0--0--0--0--0--0----|



Play the Verse, Pre-chorus & Chorus one more time, before the solo.



Solo:

Gtr. 1

E-----------------------------------------------------------------|
B-----------------------------------------------------------------|
G--9--9----9-9--9----9--------------------------------------------|
D--9--9----9-9--9----9-9------------------------------------------|
A--7--7----7-7--7----7-9----9--11--9--12--9--11--9--12--9--11--9--|
E----------------------7----7---7--7---7--7---7--7---7--7---7--7--|

E-----------------------------------------------------------------|
B-----------------------------------------------------------------|
G-----------------------------------------------------------------|
D----9--9----9-9--9----9--2---------------------------------------|
A----9--9----9-9--9----9--2----2--4--2--5--2--4--2--5--2--4--2----|
E----7--7----7-7--7----7--0----0--0--0--0--0--0--0--0--0--0--0----|

E-----------------------------------------------------------------|
B-----------------------------------------------------------------|
G-----------------------------------------------------------------|
D--2--2----2-2--2----2-9------------------------------------------|
A--2--2----2-2--2----2-9----9--11--9--12--9--11--9--12--9--11--9--|
E--0--0----0-0--0----0-7----7---7--7---7--7---7--7---7--7---7--7--|

E-----------------------------------------------------------------|
B-----------------------------------------------------------------|
G-----------------------------------------------------------------|
D----9--9----9-9--9----9--2---------------------------------------|
A----9--9----9-9--9----9--2----2--4--2--5--2--4--2--5--2--4--2----|
E----7--7----7-7--7----7--0----0--0--0--0--0--0--0--0--0--0--0----|

Gtr. 2

E--12--12--12--12--12------15--|--15-12--------------------------------|
B--12--12--12--12--12----------|----------15-12------------------------|
G------------------------------|------------------15-14-12-------------|
D------------------------------|-----------------------------14-12-14--|
A------------------------------|---------------------------------------|
E------------------------------|---------------------------------------|

E------16----------------------------------------|---------------------|
B--16------16--19--16----------16----------------|-------12------------|
G----------------------19--18------18--16--16~~--|--13--------13---11--|
D------------------------------------------------|---------------------|
A------------------------------------------------|---------------------|
E------------------------------------------------|---------------------|

E------------------------------|---------------------------------------|
B------------12----------------|---------------------------------------|
G--11---13--------13---13--11--|--4--2--0----2--0----------4--2--0-----|
D------------------------------|-------------------2--2-------------2--|
A------------------------------|---------------------------------------|
E------------------------------|---------------------------------------|

Pre-Chorus:

E-------------------------|-------------------------------------------|
B-------------------------|-------------------------------------------|
G----14-------------------|----14-------------------------------------|
D----14----14---9---14----|----14----14----16-16-16-16-16-16-16-16----|
A----12----14---9---14----|----12----14----16-16-16-16-16-16-16-16----|
E----------12---7---12----|----------12----14-14-14-14-14-14-14-14----|

E---------------------------------------------------------------------|
B---------------------------------------------------------------------|
G---------------------------------------------------------------------|
D----------17----17----17----17--------17----17----17----17-----17----|
A----------17----17----17----17--------17----17----17----17-----17----|
E----------15----15----15----15--------15----15----15----15-----15----|

Chorus:

E-----------------------------------------------------------------|
B-----------------------------------------------------------------|
G--9--9----9-9--9----9--------------------------------------------|
D--9--9----9-9--9----9-9------------------------------------------|
A--7--7----7-7--7----7-9----9--11--9--12--9--11--9--12--9--11--9--|
E----------------------7----7---7--7---7--7---7--7---7--7---7--7--|

E-----------------------------------------------------------------|
B-----------------------------------------------------------------|
G-----------------------------------------------------------------|
D----9--9----9-9--9----9--2---------------------------------------|
A----9--9----9-9--9----9--2----2--4--2--5--2--4--2--5--2--4--2----|
E----7--7----7-7--7----7--0----0--0--0--0--0--0--0--0--0--0--0----|

E-----------------------------------------------------------------|
B-----------------------------------------------------------------|
G-----------------------------------------------------------------|
D--2--2----2-2--2----2-9------------------------------------------|
A--2--2----2-2--2----2-9----9--11--9--12--9--11--9--12--9--11--9--|
E--0--0----0-0--0----0-7----7---7--7---7--7---7--7---7--7---7--7--|

E-----------------------------------------------------------------|
B-----------------------------------------------------------------|
G-----------------------------------------------------------------|
D----9--9----9-9--9----9--2------------------------2--------------|
A----9--9----9-9--9----9--2----2--4--2--5--2--4----2--------------|
E----7--7----7-7--7----7--0----0--0--0--0--0--0----0--------------|


Gtr .1

E--------------------------------------------------------------|
B--------------------------------------------------------------|
G--11-11--11-11--11--11----------------------------------------|
D--11-11--11-11--11--11-11-------------------------------------|
A--9--9---9--9---9---9--11--11--13-11-14-11-13-11-14-11-13-11--|
E-----------------------9---9---9--9--9--9--9--9--9--9--9--9---|

E--------------------------------------------------------------|
B--------------------------------------------------------------|
G--------------------------------------------------------------|
D--11-11--11-11--11--11--4-------------------------------------|
A--11-11--11-11--11--11--4----4--6--4--7--4--6--4--7--4--6--4--|
E--9--9---9--9---9---9---2----2--2--2--2--2--2--2--2--2--2--2--|

E--------------------------------------------------------------|
B--------------------------------------------------------------|
G--------------------------------------------------------------|
D--4--4---4--4---4---4-----------------------------------------|
A--4--4---4--4---4---4--11--11--13-11-14-11-13-11-14-11-13-11--|
E--2--2---2--2---2---2---9---9---9--9--9--9--9--9--9--9--9--9--|

E-----------------------------|--------------------------------|
B-----------------------------|--------------------------------|
G-----------------------------|--------------------------------|
D--11-11--11-11--11--11--4----|------4-------------------------|
A--11-11--11-11--11--11--4----|------4-------------------------|
E--9--9---9--9---9---9---2----|------2-------------------------|

Gtr. 2

E--------------------------------------------------------------|
B-----7-7-7-7----7-7-7-7----7-7-7-7----7-7-7-7----7-7-7--------|
G-------------------------------------------------------6------|
D--------------------------------------------------------------|
A--------------------------------------------------------------|
E--------------------------------------------------------------|

E-----14-14-14------14-14-14-----14-14-14-----14-14-14---------|
B--14-14-14-14---14-14-14-14--14-14-14-14--14-14-14-14--12-----|
G----------------------------------------------------------13--|
D--------------------------------------------------------------|
A--------------------------------------------------------------|
E--------------------------------------------------------------|
Tap to rate this tab
# A B C D E F G H I J K L M N O P Q R S T U V W X Y Z