Guitaretab - guitar tabs
Song name
# A B C D E F G H I J K L M N O P Q R S T U V W X Y Z

Twisted Sister - Bad Boys Of Rock N Roll tab

Band:  Twisted Sister
Album: Under The Blade
Song:  Bad Boys of Rock n Roll guitar solo

Copyright (c)  (Secret) (1982)
Version 1.0 - (17/06/06)

Transcribed By: Steve
Email:          stephen.elvidge1@ntlworld.com


.  - palm mute           /  - slide up to
\  - slide down to       ~  - vibrato
h  - hammer on           b  - Bend
p  - pull off            Suffixes for bend
t  - tap                 f  - full bend    h - half bend
ph - pinched harmonic    q  - quarter bend t - tap bend
                         p  - pre bend
*  - see comment         ^  - Hold bend    r release bend
x  - Stuccatto           ~  - vibrato bend
,  - slight palm mute    () - ghost note, sustained note
"  - tremolo note        <> - harmonic

Tuning E A D G B E

|---------------------------------------------------|
|-/13-13-13-13-13-13-13-13-/13-13-13-13-13-13-13-13-|
|-/14-14-14-14-14-14-14-14-/14-14-14-14-14-14-14-14-|
|---------------------------------------------------|
|---------------------------------------------------|
|---------------------------------------------------|

[ Tab from: http://www.guitaretab.com/t/twisted-sister/74373.html ]
|------------------------------------------|
|-/13-13-13-13-13-13-13-13-----17-17-17-17-|
|-/14-14-14-14-14-14-14-14-/18-18-18-18-18-|
|------------------------------------------|
|------------------------------------------|
|------------------------------------------|


                             ~~~~                               ~~~~
|-----13-13-15fb-15fb--rp13------13-15-13-15fbr15fbr15fbr15fbr15fb--|
|-/14-----------------------15--------------------------------------|
|-------------------------------------------------------------------|
|-------------------------------------------------------------------|
|-------------------------------------------------------------------|
|-------------------------------------------------------------------|

                    h
|--------9-10----9-10--12----12-14-15/17----\--------|
|-/10-12------12----------15-----------------/12-10--|
|----------------------------------------------------|
|----------------------------------------------------|
|----------------------------------------------------|
|----------------------------------------------------|

       ph   ph phPM
|------------------------------------------15br13----13------|
|-12fb-------------------------------12fb---------15----15---|
|------12br10-------12brp10-12-10----------------------------|
|-------------12-12---------------xx-------------------------|
|------------------------------------------------------------|
|------------------------------------------------------------|




END

Related for Bad Boys Of Rock N Roll tab
Bad Boys Of Rock N Roll chords by Twisted Sister