Song name
# A B C D E F G H I J K L M N O P Q R S T U V W X Y Z

Twisted Sister - You Know I Cry tab

You Know I Cry by Twisted Sister
(tuned a half step down, Eb Bb F# C# G# Eb)

 h   hammer on      /   slide up
 p   pull off       \   slide down
 b   bend           *   natural harmonic
 pb  pre bend       ra  rake
 r   release bend   x   dead note
 (#) muted note

Intro
|----------------------------------------------------------------|
|----------------------------------------------------------------|
|----------------------------------------------------------------|
|--7---7----5---5----3---3----2----7---7----5---5----3---3----2--|
|--5-7-5----3-5-3----1-3-1----0----5-7-5----3-5-3----1-3-1----0--|
|----5--------3--------1-------------5--------3--------1---------|


Verse
|----------------------------------------------|
|----------------------------------------------|
|----------------------------------------------|
|--/7----\5----\3----2----/7----\5----\3----2--|
|--/5----\3----\1----0----/5----\3----\1----0--|
|----------------------------------------------|

Chorus

Verse

Chorus

Solo Rythm
|---------------------------------------------|
|---------------------------------------------|
|---------------------------------------------|
|--7----5----3----2---------5----3----5----2--|
|--5----3----1----0----3----3----1----3----0--|
|----------------------1----------------------|

1st Solo (1:13)
|-------------------------------------------------------------13------------|
|--------------13-10------10--11-10--------11--13-11--------13---13-15---15-|
|--10----10-9--------9---------------10--9------------12-10-----------15----|
|----------------------12---------------------------------------------------|
|---------------------------------------------------------------------------|
|---------------------------------------------------------------------------|


-------------------------------------|
-------------------------------------|
--14-12--14----14h15p14----14h15p14--|
-------------------------------------|
-------------------------------------|
-------------------------------------|


Verse

Chorus


2nd Solo (2:16) Guitar 1
|-------------------------------------------------------------13------------|
|--------------13-10------10--11-10--------11--13-11--------13---13-15---15-|
|--10----10-9--------9---------------10--9------------12-10-----------15----|
|----------------------12---------------------------------------------------|
|---------------------------------------------------------------------------|
|---------------------------------------------------------------------------|


----------------12---------------------------------------------|
-------------13---13-------15-13-------------------------------|
--14-12--14----------15-14-------15-14---14h15p14----14h15p14--|
---------------------------------------------------------------|
---------------------------------------------------------------|
---------------------------------------------------------------|


2nd Solo (2:16) Guitar 2 (same as guitar 1 but an octave down)
|---------------------------------------------------------------------------|
|---------------------------------------------------------------------------|
|-------------------------------------------------10------------------------|
|----------10--7-------7-8-7------7--10-7------10---10-12---12--------------|
|--8---8-7-------7-----------8--7---------7-8-------------12---12-11-10-10--|
|------------------10-------------------------------------------------------|


------------------------------------------|
------------------------------------------|
------------------------------------------|
--9--------7------------------------------|
----10-9-7----10--8--7----7h8p7----7h8p7--|
------------------------------------------|


3rd Solo (2:35)
|-------------------------------------------------------------------|
|--8b--8br-p6-8-6--8br-p6-8-6--8br-p6h8p6h8p6h8b--8brp6-8-6---------|
|------------------------------------------------------------7-5-7--|
|-------------------------------------------------------------------|
|-------------------------------------------------------------------|
|-------------------------------------------------------------------|


------------------------------------------------------/10--10--13--10--13b--|
-8brp6-8-6---------8brp6-8-6---------8br-p6--8p6-8b-------------------------|
------------7-5-7-------------7-5-7-----------------------------------------|
----------------------------------------------------------------------------|
----------------------------------------------------------------------------|
----------------------------------------------------------------------------|


-10--10-13-10--13b--10--10-13-10-13b--13pb-13pb-13pb-13pb-13pb-13pb-13pb----|
----------------------------------------------------------------------------|
----------------------------------------------------------------------------|
----------------------------------------------------------------------------|
----------------------------------------------------------------------------|
----------------------------------------------------------------------------|


--13pb-13pb-13pb--13-10-----------------------------------------------------|
------------------------10--12p10----12p10----------------------------------|
----------------------------------12-------12--12--10---------10---------10-|
------------------------------------------------------12p10h12---12p10h12---|
----------------------------------------------------------------------------|
----------------------------------------------------------------------------|


------------------------------------------8--10p8----8-10-10p8---10p8-------|
---------------------------------------10---------10-----------10-----10----|
---------10---------10---12p10----------------------------------------------|
-12p10h12---12p10h12-----------12-12b---------------------------------------|
----------------------------------------------------------------------------|
----------------------------------------------------------------------------|

--10p8---10p8--------------------------------------------------------------|
-------10-----10---12br--10------------10------12br--10------------10------|
-------------------12br--10--12----12--10--12--12br--10--12----12--10--12--|
-----------------------------12----12------12------------12----12------12--|
---------------------------------------------------------------------------|
---------------------------------------------------------------------------|


2nd Solo

Chorus


Ending
|-------------------------------------------|
|-------------------------------------------|
|-------------------------------------------|
|-----7-7-7------5-5-5-----3-3-3-----2-2-2--|
|--5--5-5-5---3--3-3-3--1--1-1-1--0--0-0-0--|
|-------------------------------------------|


---------------------------------------------------------------|
---------------------------------------------------------------|
---------------------------------------------------------------|
-----7-7-7------5-5-5-----3-3-3-----2-2-2----2----2----5----7--|
--5--5-5-5---3--3-3-3--1--1-1-1--0--0-0-0----0----0----3----5--|
---------------------------------------------------------------|

I'm not too sure how right that ending is, i think theres 2 guitars playing it but that 
was a pain to tab out and I dont feel like fixing it.
Tap to rate this tab
# A B C D E F G H I J K L M N O P Q R S T U V W X Y Z